Home » E » Elevation Worship »

Elevation Worship - Only King Forever Tabs

Artists:  A B C D E F G H I J K L M N O P Q R S T U V W X Y Z # 

Only King Forever Tabs

(ver. 2) Click to play this song!
Elevation Worship
intro
e--------------------------------------------------------------------------------
B---88888888--66666666--555555555555--10101010--55555555--66666666--55555555-----
G--------------------------------------------------------------------------------   X2
D--------------------------------------------------------------------------------
A--------------------------------------------------------------------------------
E--------------------------------------------------------------------------------

verse
e------------5----------------------
B---8--6--5-----5--6--5-------5-----
G---5--5--5--5-----------5h7--5-----
D---------------5--5--5-------------
A-----------------------------------
E-----------------------------------

chorus
e----------------------------------------------
B----------------------------------------------
G--9(X12)--5(X4)--10(X16)--12(X16)--10(X16)----
D----------------------------------------------
A--7(X12)--3(X4)---8(X16)--10(X16)---8(X16)----
E----------------------------------------------

pre bridge
e------------------------------------------
B--33333333--------------------------------
G------------55555555--4444444444444444----  X2
D------------------------------------------
A------------------------------------------
E------------------------------------------

bridge
e--------------------------------|  |-------------------------------
B--33333333------------12(X16)---|  |--66666666--55555555--12(X16)--
G------------55555555------------|X3|-------------------------------
D--------------------------------|  |-------------------------------
A--------------------------------|  |-------------------------------
E--------------------------------|  |-------------------------------            
Submit corrections

↑ Back to top | Tablatures and chords for acoustic guitar and electric guitar, ukulele, drums are parodies/interpretations of the original songs. You may use it for private study, scholarship, research or language learning purposes only