Home » E » Elevation Worship »

Elevation Worship - Only King Forever Tabs

Artists:  A B C D E F G H I J K L M N O P Q R S T U V W X Y Z # 

Only King Forever Tabs

(ver. 1) Click to play this song!
Elevation Worship
e|---------------------------------------------------------------------------|
B|---77777777-55555555-444444444444-9999-44444444-55555555-44444444----------|
G|---------------------------------------------------------------------------|
D|---------------------------------------------------------------------------|
A|---------------------------------------------------------------------------|
E|---------------------------------------------------------------------------|
2nd half of Verse
e|------------4--------------------------------------------------------------|
B|---7--5--4-----4--5--4-------4-5-------------------------------------------|
G|---4--4--4--4--4--4--4-------4-4-------------------------------------------|
D|--------------------------4h6----------------------------------------------|
A|---------------------------------------------------------------------------|
E|---------------------------------------------------------------------------|
Chorus
e|---------------------------------------------------------------------------|
B|---------------------------------------------------------------------------|
G|---8(x12)-4(x4)-9(x16)-11(x16)-9(x16)-8------------------------------------|
D|---------------------------------------------------------------------------|
A|---6(x12)-2(x4)-7(x16)-9(x16)--7(x16)-6------------------------------------|
E|---------------------------------------------------------------------------|
Bridge: Quiet and Loud
e|---------------------------------------------------------------------------|
B|---2(x8)-----------------2(x8)-------11(x16)-------------------------------|
G|---------4(x8)-3(x16)----------4(x8)---------------------------------------|
D|---------------------------------------------------------------------------|
A|---------------------------------------------------------------------------|
E|---------------------------------------------------------------------------|            
Submit corrections

↑ Back to top | Tablatures and chords for acoustic guitar and electric guitar, ukulele, drums are parodies/interpretations of the original songs. You may use it for private study, scholarship, research or language learning purposes only