» » »

Elevation Worship - Mighty Warrior Bass

Artists:  A B C D E F G H I J K L M N O P Q R S T U V W X Y Z # 

Mighty Warrior Bass

(ver. 1) Click to play this song!
Elevation Worship
 Rating:
4/5 (4 votes)

 Mighty Warrior lessons Tabs too difficult? Try these video lessons and learn fast
 
                Tuning: EADG (standard)

INTRO I. Drums Only

INTRO (all instruments)
G|----------------------------------------------------------------------------------|
D|----------------------------------------------------------------------------------|
A|-3-3-3-3-3-3-3-3-3-3-3-3-------3-------3-3-3-3-3-3-3-3-3-3-3-3-3-3-3-3-----3----7-|
E|--------------------------5--1---5--1----------------------------------5-1---5----|

VERSE (listen to song for note changes for a more precise feel)
G|--------------------------------------------------------------------------------------------------|
D|--------------------------------------------------------------------------------------------------|
A|-3-3-3-3-3-3-3-3-3-3-3-3-3-3-3-3-------------------------------------------3-3-3-3-3-3-3-3-3-3-3-3|
E|----------------------------------3-3-3-3--5-5-5-5-5-5-5-5-1-1-1-1-1-1-1-1------------------------|

FILL
G|---------------------------------------------------------------------------------------|
D|---------------------------------------------------------------------------------------|
A|-3-3-3-3-------------------------------------------------------------------------------|
E|---------3-3-3-3--5-5-5-5--1-1-1-1-----------------------------------------------------|

VERSE

CHORUS
G|---------------------------------------------------------------------------|
D|---------------------------------------------------------------------------|
A|-3-3-3-3-------------------------------------------------------------------|
E|---------3-3-3-3-3--5-5-5-5-1-1-1-1----------------------------------------|

INTRO
VERSE

BRIDGE
G|-------------------------------------------------------------------------------------|
D|-------------------------------------------------------------------------------------|
A|----------3-3-3-3-----------5-5-5-5--------------------------------------------------|
E|-1-1-1-1-----------3-3-3-3-----------------------------------------------------------|
            
Submit corrections


        Mighty Warrior lessons Hard to play? Try these video lessons and learn fast Mighty Warrior lessons
        
↑ Back to top | Tablatures and chords for acoustic guitar and electric guitar, ukulele, drums are parodies/interpretations of the original songs. You may use it for private study, scholarship, research or language learning purposes only