Home » E » Element Eighty »

Element Eighty - Goodbye Tabs

Artists:  A B C D E F G H I J K L M N O P Q R S T U V W X Y Z # 

Goodbye Tabs

(ver. 3) Click to play this song!
Element Eighty

Key:
(5)  -  Harmonic
PM:..-  Palm Mute
/    -  Slide up
p    -  Pull off
h    -  Hammer On

All Guitars tuned down a ½ step. And low String is in Drop!!
Play through as is, repeats are written in.


Intro:
Eb|-------------------------------------------------------------------|
Bb|-------------------------------------------------------------------|
Gb|---------5 - 3 - 5 - 12 - 11 - 12 - 14-----------------------------|
Db|-------------------------------------------------------------------|
Ab|---------7 - 5 - 7 - 10 -  9 - 10 - 12-----------------------------|
Db|-0-0-0-------------------------------------------------------------|

Intro. (Cont.)/Verse
Eb|-------------------------------------------------------------------|
Bb|-------------------------------------------------------------------|
Gb|-------(5)---------------------------------------------------------|
Db|---------------------------------(5)-------------------------------|
Ab|-0-0-0-----0--0-0--0-0----0-0-0-------0--0-0--0-0h3p0-h5-----------|
Db|-0-0-0-----0--0-0--0-0----0-0-0-------0--0-0--0--------------------|
PM: . . .     .  . .  . .    . . .       .  . .  .

Eb|-------------------------------------------------------------------|
Bb|-------------------------------------------------------------------|
Gb|-------(5)-------------------------------12-12-12-12-11-11-11-11---|
Db|---------------------------------(5)-------------------------------|
Ab|-0-0-0-----0--0-0--0-0----0-0-0-------0—-10-10-10-10-9--9--9--9----|
Db|-0-0-0-----0--0-0--0-0----0-0-0-------0----------------------------|
PM: . . .     .  . .  . .    . . .       .


Eb|-------------------------------------------------------------------|
Bb|-------------------------------------------------------------------|
Gb|---------5 - 3 - 5 - 12 - 11 - 12 - 14-----------------------------|
Db|-------------------------------------------------------------------| X2
Ab|-0-0-0---7 - 5 - 7 - 10 -  9 - 10 - 12-----------------------------|
Db|-0-0-0-------------------------------------------------------------|
PM: . . .

Pre Chorus:
Eb|-------------------------------------------------------------------|
Bb|-------------------------------------------------------------------|
Gb|-7-----7-----7-----7-----9---7---5-----5-----5---------------------|
Db|-------------------------------------------------------------------|
Ab|-5-0-0-5-0-0-5-0-0-5-0-0-7-0-5-0-3-0-0-3-0-0-3---------------------|
Db|---0-0---0-0---0-0---0-0---0---0---0-0---0-0-----------------------|
PM:   . .   . .   . .   . .   .   .   . .   . .

Eb|-------------------------------------------------------------------|
Bb|-------------------------------------------------------------------|
Gb|--/12-12-12-12-11-11-11-11-----------------------------------------|
Db|-------------------------------------------------------------------|
Ab|--/10-10-10-10--9--9--9--9-----------------------------------------|
Db|-------------------------------------------------------------------|


Eb|-------------------------------------------------------------------|
Bb|-------------------------------------------------------------------|
Gb|-14-----14-----14-----14-----16---14---12-----12-----12------------|
Db|-------------------------------------------------------------------|
Ab|-12-0-0-12-0-0-12-0-0-12-0-0-14-0-12-0-10-0-0-10-0-0-10------------|
Db|----0-0----0-0----0-0----0-0----0----0----0-0----0-0---------------|
PM:    . .    . .    . .    . .    .    .    . .    . . 

Chorus:
Eb|-------------------------------------------------------------------|
Bb|-------------------------------------------------------------------|
Gb|-------(5)---------------------------------------------------------|
Db|---------------------------------(5)-------------------------------|
Ab|-0-0-0-----0--0-0--0-0----0-0-0-------0--0-0--0-0h3p0-h5-----------|
Db|-0-0-0-----0--0-0--0-0----0-0-0-------0--0-0--0--------------------|
PM: . . .     .  . .  . .    . . .       .  . .  .

Eb|-------------------------------------------------------------------|
Bb|-------------------------------------------------------------------|
Gb|-------(5)-------------------------------12-12-12-12-11-11-11-11---|
Db|---------------------------------(5)-------------------------------|
Ab|-0-0-0-----0--0-0--0-0----0-0-0-------0—-10-10-10-10-9--9--9--9----|
Db|-0-0-0-----0--0-0--0-0----0-0-0-------0----------------------------|
PM: . . .     .  . .  . .    . . .       .


Eb|-------------------------------------------------------------------|
Bb|-------------------------------------------------------------------|
Gb|---------5 - 3 - 5 - 12 - 11 - 12 - 14-----------------------------|
Db|-------------------------------------------------------------------| X3
Ab|---------7 - 5 - 7 - 10 -  9 - 10 - 12-----------------------------|
Db|-0-0-0-------------------------------------------------------------|
PM: . . .

Eb|-------------------------------------------------------------------|
Bb|-------------------------------------------------------------------|
Gb|-7-----7-----7-----7-----9---7---5-----5-----5---------------------|
Db|-------------------------------------------------------------------|
Ab|-5-0-0-5-0-0-5-0-0-5-0-0-7-0-5-0-3-0-0-3-0-0-3---------------------|
Db|---0-0---0-0---0-0---0-0---0---0---0-0---0-0-----------------------|
PM:   . .   . .   . .   . .   .   .   . .   . .

Eb|----------------------------|
Bb|----------------------------|
Gb|--/12-12-12-12-11-11-11-11--|
Db|----------------------------|
Ab|--/10-10-10-10--9--9--9--9--|
Db|----------------------------|


Eb|-------------------------------------------------------------------|
Bb|-------------------------------------------------------------------|
Gb|-14-----14-----14-----14-----16---14---12-----12-----12------------|
Db|-------------------------------------------------------------------|
Ab|-12-0-0-12-0-0-12-0-0-12-0-0-14-0-12-0-10-0-0-10-0-0-10------------|
Db|----0-0----0-0----0-0----0-0----0----0----0-0----0-0---------------|

Eb|-------------------------------------------------------------------|
Bb|-------------------------------------------------------------------|
Gb|-------(5)---------------------------------------------------------|
Db|---------------------------------(5)-------------------------------|
Ab|-0-0-0-----0--0-0--0-0----0-0-0-------0--0-0--0-0h3p0-h5-----------|
Db|-0-0-0-----0--0-0--0-0----0-0-0-------0--0-0--0--------------------|
PM: . . .     .  . .  . .    . . .       .  . .  .

Eb|-------------------------------------------------------------------|
Bb|-------------------------------------------------------------------|
Gb|-------(5)-------------------------------12-12-12-12-11-11-11-11---|
Db|---------------------------------(5)-------------------------------|
Ab|-0-0-0-----0--0-0--0-0----0-0-0-------0—-10-10-10-10-9--9--9--9----|
Db|-0-0-0-----0--0-0--0-0----0-0-0-------0----------------------------|
PM: . . .     .  . .  . .    . . .       .

Slight Variation The Second Time Through
Eb|-------------------------------------------------------------------|
Bb|-------------------------------------------------------------------|
Gb|-------(5)---------------------------------------------------------|
Db|---------------------------------(5)-------------------------------|
Ab|-0-0-0-----0--0-0--0-0----0-0-0-------0--0-0--0-0h3p0-h5-----------|
Db|-0-0-0-----0--0-0--0-0----0-0-0-------0--0-0--0--------------------|
PM: . . .     .  . .  . .    . . .       .  . .  .

Eb|-------------------------------------------------------------------|
Bb|-------(5)---------------------------------------------------------|
Gb|-----------------------------------------17-17-17-17-16-16-16-16---|
Db|---------------------------------(5)-------------------------------|
Ab|-0-0-0-----0--0-0--0-0----0-0-0-------0—-15-15-15-15-14-14-14-14---|
Db|-0-0-0-----0--0-0--0-0----0-0-0-------0----------------------------|
PM: . . .     .  . .  . .    . . .       .


Eb|-------------------------------------------------------------------|
Bb|-------------------------------------------------------------------|
Gb|---------5 - 3 - 5 -/12 - 11 - 12 - 14-----------------------------|
Db|-------------------------------------------------------------------|
Ab|---------7 - 5 - 7 -/10 -  9 - 10 - 12-----------------------------|
Db|-0-0-0-------------------------------------------------------------|


Eb|----------------------------------------------------|
Bb|----------------------------------------------------|
Gb|----------------------------------------------------|
Db|----------------------------------------------------|
Ab|--0-0-0-0-5-5-5-5-3-3-3-3-5-5-5-5-5-5-5-5-3-3-3-3---|
Db|--0-0-0-0-0-0-0-0-0-0-0-0-0-0-0-0-5-5-5-5-3-3-3-3---|




Eb|-------------------------------------------------------------------|
Bb|-------------------------------------------------------------------|
Gb|-------------------------------------------------------------------|
Db|--7-7-7-7-7-7-7---7-7-7-7-7-7---5-5-5-5-5-5-5----------------------|
Ab|--5-5-5-5-5-5-5---5-5-5-5-5-5---3-3-3-3-3-3-3---5-5-5-5--3-3--5----|
Db|------------------------------------------------5-5-5-5--3-3--5----|

                                        Pause                                          
Eb|-------------------------------------------|-----------------------|
Bb|-------------------------------------------|-----------------------|
Gb|-------------------------------------------|-----------------------|
Db|--7-7-7-7-7-7-7---7-7-7-7-7-7---5-5-5-5-5--V-----------------------|
Ab|--5-5-5-5-5-5-5---5-5-5-5-5-5---3-3-3-3-3-------5-5-5-5--3-3--5----|
Db|------------------------------------------------5-5-5-5--3-3--5----|


Eb|-------------------------------------------------------------------|
Bb|-------------------------------------------------------------------|
Gb|-7-----7-----7-----7-----9---7---5-----5-----5---------------------|
Db|-------------------------------------------------------------------|
Ab|-5-0-0-5-0-0-5-0-0-5-0-0-7-0-5-0-3-0-0-3-0-0-3---------------------|
Db|---0-0---0-0---0-0---0-0---0---0---0-0---0-0-----------------------|
PM:   . .   . .   . .   . .   .   .   . .   . .

Eb|-------------------------------------------------------------------|
Bb|-------------------------------------------------------------------|
Gb|--/12-12-12-12-11-11-11-11-----------------------------------------|
Db|-------------------------------------------------------------------|
Ab|--/10-10-10-10--9--9--9--9-----------------------------------------|
Db|-------------------------------------------------------------------|


Eb|-------------------------------------------------------------------|
Bb|-------------------------------------------------------------------|
Gb|-14-----14-----14-----14-----16---14---12-----12-----12------------|
Db|-------------------------------------------------------------------|
Ab|-12-0-0-12-0-0-12-0-0-12-0-0-14-0-12-0-10-0-0-10-0-0-10------------|
Db|----0-0----0-0----0-0----0-0----0----0----0-0----0-0---------------|

Eb|-----------------------|
Bb|---------14~~ 13~~ ----|
Gb|-----------------------|With Wah Expression Pedal!
Db|-----------------------|
Ab|-----------------------|
Db|-----------------------|




Eb|-------------------------------------------------------------------|
Bb|-------------------------------------------------------------------|
Gb|-------(5)---------------------------------------------------------|
Db|---------------------------------(5)-------------------------------|
Ab|-0-0-0-----0--0-0--0-0----0-0-0-------0--0-0--0-0h3p0-h5-----------|
Db|-0-0-0-----0--0-0--0-0----0-0-0-------0--0-0--0--------------------|
PM: . . .     .  . .  . .    . . .       .  . .  .

Eb|-------------------------------------------------------------------|
Bb|-------------------------------------------------------------------|
Gb|-------(5)-------------------------------12-12-12-12-11-11-11-11---|
Db|---------------------------------(5)-------------------------------|
Ab|-0-0-0-----0--0-0--0-0----0-0-0-------0—-10-10-10-10-9--9--9--9----|
Db|-0-0-0-----0--0-0--0-0----0-0-0-------0----------------------------|
PM: . . .     .  . .  . .    . . .       .

Eb|-------------------------------------------------------------------|
Bb|-------------------------------------------------------------------|
Gb|-------(5)---------------------------------------------------------|
Db|---------------------------------(5)-------------------------------|
Ab|-0-0-0-----0--0-0--0-0----0-0-0-------0--0-0--0-0h3p0-h5-----------|
Db|-0-0-0-----0--0-0--0-0----0-0-0-------0--0-0--0--------------------|
PM: . . .     .  . .  . .    . . .       .  . .  .

Eb|-------------------------------------------------------------------|
Bb|-------------------------------------------------------------------|
Gb|-------(5)-------------------------------17-17-17-17-16-16-16-16---| Rhythm
Db|-----------------------------------(5)-----------------------------| Change 
Ab|-0-0-0-----0--0-0--0-0-0-0--0-0-0------0-15-15-15-15-14-14-14-14---| At The 
Db|-0-0-0-----0--0-0--0-0-0-0--0-0-0------0---------------------------| End! 
                                                                       
Eb|---------------------|
Bb|---------------------|
Gb|----------(5)--------|
Db|---------------------| Let Harmonic Ring Out!!
Ab|--0-0-0--------------|
Db|--0-0-0--------------|

This is not my song!! Merely a transcription of an awesome band’s tune!!!
            
Submit corrections

↑ Back to top | Tablatures and chords for acoustic guitar and electric guitar, ukulele, drums are parodies/interpretations of the original songs. You may use it for private study, scholarship, research or language learning purposes only