Home » E » Eden Ahbez »

Eden Ahbez - Xo Tabs

Artists:  A B C D E F G H I J K L M N O P Q R S T U V W X Y Z # 

Xo Tabs

(ver. 1) Click to play this song!
Eden Ahbez
Tuning: Standard

E|-------6-------------5----------------6-------------5---------------------|
B|-------------6-------------5----------------6-------------5h6p5--------3--|
G|--------------------------------------------------------------------------|
D|--3/5-----------2/3--------------3/5-----------2/3------------------------|
A|----------5-------------3-----3----------5-------------3---------3--1-----|
E|--------------------------------------------------------------------------|


E|--1--0--------1--3--0--1--------1--0--1--------1--0--|
B|-----------3-----------------3--------------3--------|
G|-----------------------------------------------------|
D|--0-----------0-----------------0--------------0-----|
A|-----3--1-----------3-----1--------3-----1--------3--|
E|-----------------------------------------------------|


E|-------6-------------------------6-------------------------6-------------------------------------0--|
B|-------------6-----5-----3-------------6-----5-----3-------------6h8-----5-----3--1-----------3-----|
G|-------------------------------------------------------------------------------------3--3-----------|
D|--3/5-----------------------3/5-----------------------3/5-------------------------------------------|
A|----------5-----3-----1-------------5-----3-----1-------------5-------3-----1--------------1--------|
E|----------------------------------------------------------------------------------------------------|


E|-------6-------------5----------------6---------------5-------------|
B|-------------6-------------5--6-------------6h8-------------5--5\1--|
G|--------------------------------------------------------------------|
D|--3/5-----------2/3--------------3/5-------------2/3----------------|
A|----------5-------------3----------------5---------------3----------|
E|--------------------------------------------------------------------|


E|-------6-------------5----------------6-------------5---------------|
B|-------------6-------------5----------------6-------------5h6p5-----|
G|--------------------------------------------------------------------|
D|--3/5-----------2/3--------------3/5-----------2/3------------------|
A|----------5-------------3-----3----------5-------------3---------3--|
E|--------------------------------------------------------------------|


E|--------1--0--------1--0--------------|
B|-----3-----------3--------1-----3-----|
G|-----------------------------------6--|
D|--------0-----------0-----------------|
A|--1--------3--1--------3--0--1--------|
E|--------------------------------------|


E|-------6-------------------------6-------------------------6-------------------------------------0--|
B|-------------6-----5-----3-------------6-----5-----3-------------6h8-----5-----3--1-----------3-----|
G|-------------------------------------------------------------------------------------3--3-----------|
D|--3/5-----------------------3/5-----------------------3/5-------------------------------------------|
A|----------5-----3-----1-------------5-----3-----1-------------5-------3-----1--------------1--------|
E|----------------------------------------------------------------------------------------------------|


E|-------6-------------------5-----------------------6----------------5-------------|
B|-------------6--6--6-------------5--5h6p5----------------6--6-------------5--5\1--|
G|-------------------------------------------5--------------------------------------|
D|--3/5-----------------2/3---------------------3/5--------------2/3----------------|
A|----------5-------------------3-----------------------5----------------3----------|
E|----------------------------------------------------------------------------------|


E|-------6-------------5----------------6--1--1--|
B|-------------6-------------5--6----------------|
G|-----------------------------------------------|
D|--3/5-----------2/3--------------3/5-----0-----|
A|----------5-------------3-------------------3--|
E|-----------------------------------------------|            
Submit corrections

↑ Back to top | Tablatures and chords for acoustic guitar and electric guitar, ukulele, drums are parodies/interpretations of the original songs. You may use it for private study, scholarship, research or language learning purposes only