Home » E » Eden Ahbez »

Eden Ahbez - 2009 Phan Song Chords

Artists:  A B C D E F G H I J K L M N O P Q R S T U V W X Y Z # 

2009 Phan Song Chords

(ver. 1) Click to play this song!
Eden Ahbez
INTRO:
  Am*       F*         C*        G*
e|----------1---------|----------3-------|
B|1-0h1-----1---------|1-----------------|
G|2----2----2---------|-----0------------|  
D|2---------3---------|2-0h2-------------|
A|--------------------|3---------2-------|
E|--------------------|----------3-------|

  Am*       F*         C*        G*
e|-----0----1---------|----------3-------|
B|1-0h1-----1---------|1-----------------|
G|2---------2---------|------------------|  
D|2---------3---------|2-0h2-------------|
A|--------------------|3----3----2-------|
E|--------------------|----------3-------|

VERSE:
  Am*       F*         C*        G*
e|-----0-----1--------|----------3-----3-|
B|1------1---1----1---|1----1-----------0|
G|2---2------2-----2--|------0--------0--|  X3
D|2--2-------3---3----|2---2---------0---|
A|--------------0-----|3--3------2-------|
E|--------------------|----------3-------|

  Am*       F*         C*        G (Strum to beginning of chorus)
e|-----0-----1--------|----------3-------|
B|1------1---1----1---|1----1------------|
G|2---2------2-----2--|------0-----------|  x1
D|2--2-------3---3----|2---2-------------|
A|--------------0-----|3--3------2-------|
E|--------------------|----------3-------|

VERSE 1:
Am              F
I was dreaming, one night
C                   G
Of your black hair, and blue eyes

Am                F
You had saved me, from the bad times
C             G
I was lonely, I was lonely

Am                F
I had no friends, till' I was 18 
C                G
Oh you saved me, I was lonely

Am                F
I still love you, yes I'm sorry 
C                    G (strum to beginning of chorus)
But I still love you 

CHORUS:
 Am                  F   
 Do you remember the time 
C                        E
When we first met at the train station 
Am                  F
Do you remember the time 
C                             G
When you said you loved me in the snow
Am                  F
Do you remember the time 
C                        E
When I kissed you on the Manchester eye 
Am                  F
Do you remember the time 
C          G
Back in 2009 

VERSE 2:
Am                 F
Were you dreaming, last night 
C                 G
Of my brown hair, and my brown eyes

Am              F
I can hear you, pacing 
C                       G
Through the thin walls, of our bedrooms 

Am      F          C       G
Do you, remember, back in, 09' 
Am                F            
You had saved me, I was lonely 
C            G (strum to the beginning of chorus)
I was lonely~

CHORUS:
 Am                  F   
 Do you remember the time 
C                        E
When we first met at the train station 
Am                  F
Do you remember the time 
C                             G
When you said you loved me in the snow
Am                  F
Do you remember the time 
C                        E
When I kissed you on the Manchester eye 
Am                  F
Do you remember the time 
C          G
Back in 2009 

BRIDGE:
Dm                          C
We sat on the fountain, and looked at the stars 
Dm                   Am
Under the moonlight, a place to call ours 
C
Head on my shoulder, and fingers intertwined 
Am                 C             E
Please say they're still on your mind 


CHORUS:
 Am                  F   
 Do you remember the time 
C                        E
When we first met at the train station 
Am                  F
Do you remember the time 
C                             G
When you said you loved me in the snow
Am                  F
Do you remember the time 
C                        E
When I kissed you on the Manchester eye 
Am                  F
Do you remember the time 
C          G
Back in 2009 
 
Am                  F   
Do you remember the time 
C                        E
When we first met at the train station 
Am                  F
Do you remember the time 
C                             G
When you said you loved me in the snow
Am                  F
Do you remember the time 
C                        E
When I kissed you on the Manchester eye 
Am                  F
Do you remember the time 
C          G
Back in 2009             
Submit corrections

↑ Back to top | Tablatures and chords for acoustic guitar and electric guitar, ukulele, drums are parodies/interpretations of the original songs. You may use it for private study, scholarship, research or language learning purposes only