Home » E » Eden Ahbez »

Eden Ahbez - Xo Tabs

Artists:  A B C D E F G H I J K L M N O P Q R S T U V W X Y Z # 

Xo Tabs

(ver. 2) Click to play this song!
Eden Ahbez
[Intro]
e|------6-----------5---------------6----------5-----0h1p50---------------------|
B|-----------6-----------5--------------6----------5------1---------------------|
G|------------------------------------------------------------------------------|
D|--2/5---------1/3-------------2/5--------1/3----------------------------------|
A|---------5-----------3--------------5----------3------------------------------|
E|------------------------------------------------------------------------------|

e|-----------------------------------------------------------------------------|
B|----3--6---5----3--6-8---5-6----3---6---5h6----3---6---5---------------------|
G|-----------------------------------------------------------------------------|
D|-----------------------------------------------------------------------------|
A|--1----5---3--1----5-----3----1-----5---3----1-----5---3---------------------|
E|-----------------------------------------------------------------------------|

e|------6--------------------------6-------------------------------------------|
B|-----------6-----5------3-------------6-----5----3---------------------------|
G|-----------------------------------------------------------------------------|
D|--2/5-----------------------2/5----------------------------------------------|
A|---------5-----3-----1--------------5----3-----1-----------------------------|
E|-----------------------------------------------------------------------------|

e|------6------------------------------------------------------------------------|
B|-----------6h8-----5------3--1------------3---5--------------------------------|
G|--------------------------------3--3-------------------------------------------|
D|--2/5--------------------------------------------------------------------------|
A|---------5-----1/3-----1---------------1------3--------------------------------|
E|--------------------------------3--3-------------------------------------------|
            
Submit corrections

↑ Back to top | Tablatures and chords for acoustic guitar and electric guitar, ukulele, drums are parodies/interpretations of the original songs. You may use it for private study, scholarship, research or language learning purposes only