Home » E » Echosmith »

Echosmith - March Into The Sun Tabs

Artists:  A B C D E F G H I J K L M N O P Q R S T U V W X Y Z # 

March Into The Sun Tabs

(ver. 1) Click to play this song!
Echosmith
Tuning:Standard 

e|---5X---5-------5X---5-------5X---5-------5X---5---------------------------| Intro 
B|----------7-5----------7-5----------7-5----------7-5-----------------------|
G|---------------------------------------------------------------------------| Hey,ooh/Hey,ooh/Hey,ooh/
D|---------------------------------------------------------------------------| Hey,ooh
A|---------------------------------------------------------------------------|
E|---------------------------------------------------------------------------|

e|---------------------------------------------------------------------------| Verse 1 
B|---3-2-2---2-2-3-3-2-2---3-3-2-2---0-0-------------------------------------|
G|---------------------------------------2-2---------------------------------| This is not the end/
D|---------------------------------------------------------------------------| There's no apocalypse/
A|---------------------------------------------------------------------------| And all those kids/
E|---------------------------------------------------------------------------| Were full of it 

e|---------------------------------------------------------------------------| Pre-Chorus 
B|---5-5-7-7-5-7-2---7-7-5-5h7h8---3-3-3-3-2-2---0-0-0-----------------------|
G|-----------------------------------------------------2-2---2-2-2-2-2-2-----| I've got your hand in my 
D|---------------------------------------------------------------------------| hand/No drinks inside/
A|---------------------------------------------------------------------------| It's how we start a fire/
E|---------------------------------------------------------------------------| With a natural high 

e|---5-2-5-5-7-7-9-2-2-5-5-7-9-7-5---5-2-5-5-7-7-9-2-2-5-5-7-5-9-------------| Chorus 
B|---------------------------------------------------------------------------|
G|---------------------------------------------------------------------------| With hands in our pockets 
D|---------------------------------------------------------------------------| this doesn't have to be our 
A|---------------------------------------------------------------------------| last dance/With hands in our 
E|---------------------------------------------------------------------------| pockets this world doesn't 
                                                                               have to end 

e|---5-12-9-12-9-12-9-12-9---5-12-9-12-9-12-9-12-9-7-------------------------| Chorus 
B|---------------------------------------------------------------------------|
G|---------------------------------------------------------------------------| No grand finale 
D|---------------------------------------------------------------------------|
A|---------------------------------------------------------------------------|
E|---------------------------------------------------------------------------|

e|---2-5-5-7-7-9-2-5-7-2-5---------------------------------------------------| Chorus 
B|---------------------------------------------------------------------------|
G|---------------------------------------------------------------------------| Hands in our pockets 
D|---------------------------------------------------------------------------| we'll march into the sun 
A|---------------------------------------------------------------------------|
E|---------------------------------------------------------------------------|

e|---5X---5-------5X---5-----------------------------------------------------| Bridge  
B|----------7-5----------7-5-------------------------------------------------|
G|---------------------------------------------------------------------------| Hey,ooh/Hey,ooh
D|---------------------------------------------------------------------------| 
A|---------------------------------------------------------------------------|
E|---------------------------------------------------------------------------|

e|---------------------------------------------------------------------------| Verse 2 
B|---3-2-2---2-2-3-3-2-2---2-3-3-2-2---0-0-0---------------------------------|
G|-------------------------------------------2-2-----------------------------| When Monday comes/ 
D|---------------------------------------------------------------------------| It's ringing in your head/
A|---------------------------------------------------------------------------| And these battle drums/
E|---------------------------------------------------------------------------| In a world that's bent 

e|---------------------------------------------------------------------------| Pre-Chorus 
B|---5-5-7-7-5-7-2---7-7-5-5h7h8---3-3-3-3-2-2---0-0-0-----------------------|
G|-----------------------------------------------------2-2---2-2-2-2-2-2-----| I've got your hand in my 
D|---------------------------------------------------------------------------| hand/No drinks inside/
A|---------------------------------------------------------------------------| It's how we start a fire/
E|---------------------------------------------------------------------------| With a natural high 

e|---5-2-5-5-7-7-9-2-2-5-5-7-9-7-5---5-2-5-5-7-7-9-2-2-5-5-7-5-9-------------| Chorus 
B|---------------------------------------------------------------------------|
G|---------------------------------------------------------------------------| With hands in our pockets 
D|---------------------------------------------------------------------------| this doesn't have to be our 
A|---------------------------------------------------------------------------| last dance/With hands in our 
E|---------------------------------------------------------------------------| pockets this world doesn't 
                                                                               have to end 

e|---5-12-9-12-9-12-9-12-9---5-12-9-12-9-12-9-12-9-7-------------------------| Chorus 
B|---------------------------------------------------------------------------|
G|---------------------------------------------------------------------------| No grand finale 
D|---------------------------------------------------------------------------|
A|---------------------------------------------------------------------------|
E|---------------------------------------------------------------------------|

e|---2-5-5-7-7-9-2-5-7-2-5---------------------------------------------------| Chorus 
B|---------------------------------------------------------------------------|
G|---------------------------4-4-4-2-4/6-6-6-6-6-----------------------------| Hands in our pockets 
D|---------------------------------------------------------------------------| we'll march into the sun 
A|---------------------------------------------------------------------------|
E|---------------------------------------------------------------------------|

e|---5-5-5---9-7-5-5-5---2-5-7-2-2-5-5-5---9-7-5-5-5---2-5-7-5-7/9-----------| Bridge 
B|---------------------------------------------------------------------------|
G|---------------------------------------------------------------------------| On,on,on,we're going on/
D|---------------------------------------------------------------------------| March into the sun/
A|---------------------------------------------------------------------------| On,on,on,we're going on/
E|---------------------------------------------------------------------------| March into the sun

e|---5-5---9-7-5-5-5---2-5-7-2-2-5-5-5-9-7-5-5-------------------------------| Bridge 
B|---------------------------------------------------------------------------|
G|---------------------------------------------------------------------------| On,on,on,we're going on/
D|---------------------------------------------------------------------------| March into the sun/
A|---------------------------------------------------------------------------| On,on,on we're going on 
E|---------------------------------------------------------------------------|

e|---5-2-5-5-7-7-9-2-2-5-5-7-9-7-5---5-2-5-5-7-7-9-2-2-5-5-7-5-9-------------| Chorus 
B|---------------------------------------------------------------------------|
G|---------------------------------------------------------------------------| With hands in our pockets 
D|---------------------------------------------------------------------------| this doesn't have to be our 
A|---------------------------------------------------------------------------| last dance/With hands in our 
E|---------------------------------------------------------------------------| pockets this world doesn't 
                                                                               have to end 

e|---5-12-9-12-9-12-9-12-9---5-12-9-12-9-12-9-12-9-7-------------------------| Chorus 
B|---------------------------------------------------------------------------|
G|---------------------------------------------------------------------------| No grand finale 
D|---------------------------------------------------------------------------|
A|---------------------------------------------------------------------------|
E|---------------------------------------------------------------------------|

e|---2-5-5-7-7-9-2-5-7-2-5---5-2-5-5-7-7-9-2-5-7-2-5-------------------------| Chorus 
B|---------------------------------------------------------------------------|
G|---------------------------------------------------------------------------| Hands in our pockets 
D|---------------------------------------------------------------------------| we'll march into the sun/ 
A|---------------------------------------------------------------------------| With hands in our pockets 
E|---------------------------------------------------------------------------| we'll march into the sun 

e|---5X---5-------5X---5-------5X---5-------5X---5---------------------------| Final  
B|----------7-5----------7-5----------7-5----------7-5-----------------------|
G|---------------------------------------------------------------------------| Hey,ooh/Hey,ooh/Hey,ooh/
D|-------------------------------------------------------7---7-7-------------| Hey,ooh
A|---------------------------------------------------------------------------|
E|---------------------------------------------------------------------------|            
Submit corrections

↑ Back to top | Tablatures and chords for acoustic guitar and electric guitar, ukulele, drums are parodies/interpretations of the original songs. You may use it for private study, scholarship, research or language learning purposes only