Home » E » Echosmith »

Echosmith - March Into The Sun Bass

Artists:  A B C D E F G H I J K L M N O P Q R S T U V W X Y Z # 

March Into The Sun Bass

(ver. 1) Click to play this song!
Echosmith
INTRO (No bass, 0:00-0:13)


VERSE 1 (0:13-0:39)

G|------------------------|------------------------|
D|------------------------|------------------------| (Play x3)
A|------------------------|------------------------|
E|--5--5-5--5-5-5/10-10\--|--5--5-5--5-5-5/10-10\--|

G|------------------------|-------------------------------|
D|------------------------|-------------------------------| 
A|------------------------|-------------------------------|
E|--5--5-5--5-5-5/10-10\--|--5--5-5\2--2/5-5-5-5-5-5-5-5--|


CHORUS (0:40-1:02)

G|---------------------------------------|------------------------------|
D|---------------------------------------|------------------------------| (Play x3)
A|---------------------------------------|------------------------------|
E|--10--10--10--10--10--10--10-12-10-12--|--5--5--5--5--5--5--2/5--2-2--|

G|-------------------------|
D|-------------------------|
A|-------------------------|
E|--10--10--10-10-10--10\--|


BRIDGE (1:03-1:09)

G|------------------------|------------------------|
D|------------------------|------------------------| 
A|------------------------|------------------------|
E|--5--5-5--5-5-5/10-10\--|--5--5-5--5-5-5/10-10\--|


VERSE 2 (1:09-1:36)

G|------------------------|------------------------|
D|------------------------|------------------------| (Play x3)
A|------------------------|------------------------|
E|--5--5-5--5-5-5/10-10\--|--5--5-5--5-5-5/10-10\--|

G|------------------------|-------------------------------|
D|------------------------|-------------------------------| 
A|------------------------|-------------------------------|
E|--5--5-5--5-5-5/10-10\--|--5--5-5\2--2/5-5-5-5-5-5-5-5--|


CHORUS (1:36-1:59)

G|---------------------------------------|------------------------------|
D|---------------------------------------|------------------------------| (Play x3)
A|---------------------------------------|------------------------------|
E|--10--10--10--10--10--10--10-12-10-12--|--5--5--5--5--5--5--2/5--2-2--|

G|-------------------------|
D|-------------------------|
A|-------------------------|
E|--10--10--10-10-10--10\--|


BRIDGE (1:59-2:31)

G|---------|---------|---------|---------|----------|----------|
D|---------|---------|---------|---------|----------|----------|
A|---------|---------|---------|---------|----------|----------|
E|--5------|--5------|--5------|--5------|--10------|--10------|

G|---------|---------|----------|---------------|
D|---------|---------|----------|---------------|
A|---------|---------|----------|---------------|
E|--5------|--5------|--10------|--2/10-----\2--|


CHORUS (2:32-3:01)

G|---------------------------------------|------------------------------|
D|---------------------------------------|------------------------------| (Play x4)
A|---------------------------------------|------------------------------|
E|--10--10--10--10--10--10--10-12-10-12--|--5--5--5--5--5--5--2/5--2-2--|

G|-------------------------|
D|-------------------------|
A|-------------------------|
E|--10--10--10-10-10--10\--|


END (3:02-3:16)

G|------------------------|------------------------|
D|------------------------|------------------------| 
A|------------------------|------------------------|
E|--5--5-5--5-5-5/10-10\--|--5--5-5--5-5-5/10-10\--|

G|------------------------|--------------------------|
D|------------------------|--------------------------| 
A|------------------------|--------------------------|
E|--5--5-5--5-5-5/10-10\--|--5--5-5--5-5-5/10-10\5-5-|            
Submit corrections

↑ Back to top | Tablatures and chords for acoustic guitar and electric guitar, ukulele, drums are parodies/interpretations of the original songs. You may use it for private study, scholarship, research or language learning purposes only