Home » E » Echosmith »

Echosmith - Bright Bass

Artists:  A B C D E F G H I J K L M N O P Q R S T U V W X Y Z # 

Bright Bass

(ver. 1) Click to play this song!
Echosmith
No bass until 0:26.

[Intro]
R|--------|--------|

[Verse I]
R|--------|--------|--------|--------|--------|--------|--------|--------|

G|--------|--------|--------|--------|--------|--------|--------|--------|
D|--------|--------|--------|--------|--------|--------|--------|--------|
A|9-------|--------|6-------|--------|--------|--------|9-------|9---9-8-|
E|--------|--------|--------|--------|7-------|9-------|------7-|--------|

[Chorus I] (0:48)
G|--------|--------|--------|--------|
D|--------|--------|--------|--------|
A|6-------|--------|6-------|--------|
E|--------|7-------|--------|7---9---|

G|--------|--------|--------|--------|--------|--------|--------|--------|
D|--------|--------|--------|--------|--------|--------|--------|--------|
A|----9---|6-------|----9---|6-------|----9---|6-------|----9---|6-------|
E|7-------|----9---|7-------|----9---|7-------|----9---|7-------|----9---|

G|--------|--------|--------|--------|
D|--------|--------|--------|--------|
A|9-----8-|6-------|9-----8-|6-------|
E|--------|----7---|--------|----7---|

[Verse II] (1:32)
G|--------|--------|--------|--------|--------|--------|--------|--------|
D|--------|--------|--------|--------|--------|--------|--------|--------|
A|9-------|9-----8-|6-------|6-------|--------|--------|9-------|9-----8-|
E|--------|--------|--------|------6-|7-------|9-------|------7-|--------|

[Chorus II] (1:53)
G|--------|--------|--------|--------|
D|--------|--------|--------|--------|
A|6-------|--------|6~------|--------|
E|------6-|7-------|--------|7---9---|

G|--------|--------|--------|--------|--------|--------|--------|--------|
D|--------|--------|--------|--------|--------|--------|--------|--------|
A|----9---|6-------|----9---|6-------|----9---|6-------|----9---|6-------|
E|7-------|----9---|7-------|----9---|7-------|----9---|7-------|----9---|




[Bridge] (2:24)
G|--------|--------|--------|--------|
D|--------|6----8--|--------|6-------|
A|6-----9-|------98|6---6-9-|--------|
E|--------|--------|--------|--------|

[Outro Chorus]
[No bass from 2:34-2:45]
R|--------|--------|--------|--------|

G|--------|--------|--------|--------|--------|--------|
D|--------|--------|--------|--------|--------|--------|
A|----9---|6-------|----9---|6-------|----9---|6-------|
E|7-------|----9---|7-------|----9---|7-------|----9---|

[x4]
G|--------|--------|
D|--------|--------|
A|9---9-8-|6-------|
E|--------|----7---|

G|--------|
D|--------|
A|9-------|
E|--------|
            
Submit corrections

↑ Back to top | Tablatures and chords for acoustic guitar and electric guitar, ukulele, drums are parodies/interpretations of the original songs. You may use it for private study, scholarship, research or language learning purposes only