Home » E » Echosmith »

Echosmith - Bright Tabs

Artists:  A B C D E F G H I J K L M N O P Q R S T U V W X Y Z # 

Bright Tabs

(ver. 2) Click to play this song!
Echosmith
e|---------------------------------------------------------------------| Intro 
B|---------------------------------------------------------------------|
G|---------------------------------------------------------------------| 
D|---9---10-12-10-12-9---10-12-10-12-9---10-12-10-12-9-----------------|
A|---------------------------------------------------------------------|
E|---------------------------------------------------------------------|

e|---------------------------------------------------------------------| Verse 1 
B|---8-8-8-8-3-3-----3---------8-8-8-8-3-3-----3-----------------------|
G|---------------4-4---4-2-0----------------4-4---4---5----------------| I think the universe is on my 
D|---------------------------------------------------------------------| side/Heaven and Earth have 
A|---------------------------------------------------------------------| finally aligned
E|---------------------------------------------------------------------|

e|---------------------------------------------------------------------| Verse 1 
B|---10/12-8\5/8---3-12-8-8-7-7---3-----3------------------------------|
G|------------------------------------5---4----------------------------| Days are good/And that's the 
D|---------------------------------------------------------------------| way it should be 
A|---------------------------------------------------------------------|
E|---------------------------------------------------------------------|

e|---------------------------------------------------------------------| Verse 1 
B|---8-8-8-8-3-3-----------------8-8-8-8-3-3-----5---------------------|
G|---------------4-4-4h5p4-2-0---------------4-4---4---5---------------| You sprinkle stardust on my 
D|---------------------------------------------------------------------| pillowcase/It's like a 
A|---------------------------------------------------------------------| moonbeam brushed across my 
E|---------------------------------------------------------------------| face 

e|---------------------------------------------------------------------| Verse 1 
B|---10/12-8-5h8---3-12-8-8-7-7---3-----3------------------------------| 
G|------------------------------------5---4----------------------------| Nights are good/And that's 
D|---------------------------------------------------------------------| the way it should be 
A|---------------------------------------------------------------------|
E|---------------------------------------------------------------------|

e|---------------------------------------------------------------------| Pre-Chorus 
B|---5-8-5-8-8-15-12---8-7-5---5-8-5-8-8-8-15-12---8-7-5---3-----------|
G|---------------------------------------------------------------------| You make me sing oh, la la la/
D|---------------------------------------------------------------------| You make a girl go oh oh oh/
A|---------------------------------------------------------------------| I'm in love, love 
E|---------------------------------------------------------------------|

e|---------------------------------------------------------------------| Chorus 
B|------5-8-8-3-5-3---5-----3-------5-8-8-3-3---------12-10-8----------|
G|---5------------------4-4-----5-------------4-4----------------------| Did you see that shooting star
D|-------------------------------------------------5-5-----------------| tonight?/Were you dazzled by 
A|---------------------------------------------------------------------| the same constellation? 
E|---------------------------------------------------------------------| 

e|---------------------------------------------------------------------| Chorus 
B|---5-5-8-8-3-3-------3-12-10---5-5-8-5-5-8-5-8-5-5-3-3---------------|
G|---------------4-4---------------------------------------------------| Did you and Jupiter conspire 
D|---------------------------------------------------------------------| to get me?/I think you and 
A|---------------------------------------------------------------------| the Moon and Neptune got it 
E|---------------------------------------------------------------------| right 

e|---------------------------------------------------------------------| Chorus   
B|---3-3-3-10-8-8---7-5---7-8---7~5---3-0------------------------------|
G|---------------------------------------------------------------------| Cause now I'm shining bright,
D|---------------------------------------------------------------------| so bright/Bright,so bright 
A|---------------------------------------------------------------------|
E|---------------------------------------------------------------------|

e|---------------------------------------------------------------------| Verse 2  
B|---3-8-8-8-3-3-----------------8-8-8-3-3-----5-----------------------|
G|---------------4-4-4h5p4-2-0-------------4-4---4---5-----------------| And I see colors in a 
D|---------------------------------------------------------------------| different way/You make what 
A|---------------------------------------------------------------------| doesn't matter fade to grey 
E|---------------------------------------------------------------------|

e|---------------------------------------------------------------------| Verse 2   
B|---10/12-8-5h8---3-12-8-8-7-7---3-----3------------------------------|
G|------------------------------------5---4----------------------------| Life is good/And that's the 
D|---------------------------------------------------------------------| way it should be 
A|---------------------------------------------------------------------|
E|---------------------------------------------------------------------|

e|---------------------------------------------------------------------| Pre-Chorus 
B|---5-8-5-8-8-15-12---8-7-5---5-8-5-8-8-8-15-12---8-7-5---7/8\7-------|
G|---------------------------------------------------------------------| You make me sing oh, la la la/
D|---------------------------------------------------------------------| You make a girl go oh oh oh/
A|---------------------------------------------------------------------| I'm in love, love 
E|---------------------------------------------------------------------|

e|---------------------------------------------------------------------| Chorus 
B|------5-8-8-3-5-3---5-----3-------5-8-8-3-3---------12-10-8----------|
G|---5------------------4-4-----5-------------4-4----------------------| Did you see that shooting star
D|-------------------------------------------------5-5-----------------| tonight?/Were you dazzled by 
A|---------------------------------------------------------------------| the same constellation? 
E|---------------------------------------------------------------------| 

e|---------------------------------------------------------------------| Chorus 
B|---5-5-8-8-3-3-------3-12-10---5-5-8-5-5-8-5-8-5-5-3-3---------------|
G|---------------4-4---------------------------------------------------| Did you and Jupiter conspire 
D|---------------------------------------------------------------------| to get me?/I think you and 
A|---------------------------------------------------------------------| the Moon and Neptune got it 
E|---------------------------------------------------------------------| right 

e|---------------------------------------------------------------------| Chorus 
B|---3-3-3-10-8-8---10-5---3-5-7-8---8-10-5-3-2------------------------|
G|----------------------------------------------4-2--------------------| Cause now I'm shining bright,
D|---------------------------------------------------------------------| so bright/And I get lost in 
A|---------------------------------------------------------------------| your eyes 
E|---------------------------------------------------------------------|

e|---------------------------------------------------------------------| Chorus 
B|------5-8-8-3-5-3---5-----3-------5-8-8-3-3---------12-10-8----------|
G|---5------------------4-4-----5-------------4-4----------------------| Did you see that shooting star
D|-------------------------------------------------5-5-----------------| tonight?/Were you dazzled by 
A|---------------------------------------------------------------------| the same constellation? 
E|---------------------------------------------------------------------| 

e|---------------------------------------------------------------------| Chorus 
B|---5-5-8-8-3-3-------3-12-10---5-5-8-5-5-8-5-8-5-5-3-3---------------|
G|---------------4-4---------------------------------------2-----------| Did you and Jupiter conspire 
D|---------------------------------------------------------------------| to get me?/I think you and 
A|---------------------------------------------------------------------| the Moon and Neptune got it 
E|---------------------------------------------------------------------| right

e|---------------------------------------------------------------------| Chorus  
B|---5-5-8-5-5-8-5-8-5-5-3-3-------3-3-3-12-12-12-12-12-12-8-8-5-5-3---|
G|-----------------------------2---------------------------------------| I think you and the Moon and  
D|---------------------------------------------------------------------| Neptune got it right/I think
A|---------------------------------------------------------------------| you and the Moon and Neptune  
E|---------------------------------------------------------------------| got it right

e|---------------------------------------------------------------------| Chorus 
B|---3-3-3-10-8-8---7-5---7-8---7-5---7-8---9-4------------------------|
G|---------------------------------------------------------------------| Cause now I'm shining bright, 
D|---------------------------------------------------------------------| so bright/Bright,so bright/
A|---------------------------------------------------------------------| Bright,so bright 
E|---------------------------------------------------------------------| 

e|---------------------------------------------------------------------| Chorus 
B|---3-5-7-8---8-10-5H-3H----------------------------------------------|
G|--------------------------4h5p4--------------------------------------| And I get lost in your eyes,  
D|---------------------------------------------------------------------| tonight 
A|---------------------------------------------------------------------| 
E|---------------------------------------------------------------------|            
Submit corrections

↑ Back to top | Tablatures and chords for acoustic guitar and electric guitar, ukulele, drums are parodies/interpretations of the original songs. You may use it for private study, scholarship, research or language learning purposes only