Home » E » Echosmith »

Echosmith - Bright Tabs

Artists:  A B C D E F G H I J K L M N O P Q R S T U V W X Y Z # 

Bright Tabs

(ver. 1) Click to play this song!
Echosmith
Tuning:Standard

e|--- -----------------------------------------------------------------| Intro 
B|---------------------------------------------------------------------|
G|---------------------------------------------------------------------| 
D|---8---9-11-9-11-8---9-11-9-11-8---9-11-9-11-8-----------------------|
A|---------------------------------------------------------------------|
E|---------------------------------------------------------------------|

e|---------------------------------------------------------------------| Verse 1 
B|---7-7-7-7-2-2-----2---------7-7-7-7-2-2-----2-----------------------|
G|---------------3-3---3-1-----------------3-3---3---4-----------------| I think the universe is on my 
D|-------------------------4-------------------------------------------| side/Heaven and Earth have 
A|---------------------------------------------------------------------| finally aligned
E|---------------------------------------------------------------------|

e|---------------------------------------------------------------------| Verse 1 
B|---9/11-7-7---2-11-7-7-6-6---2---0-2-----0-2-------------------------|
G|-------------------------------------3-------3-----------------------| Days are good/And that's the 
D|---------------------------------------------------------------------| way it should be 
A|---------------------------------------------------------------------|
E|---------------------------------------------------------------------|

e|---------------------------------------------------------------------| Verse 1 
B|---7-7-7-7-2-2-----2---------7-7-7-7-2-2-----2-----------------------|
G|---------------3-3---3-1-----------------3-3---3---4-----------------| You sprinkle stardust on my 
D|-------------------------4-------------------------------------------| pillowcase/It's like a 
A|---------------------------------------------------------------------| moonbeam brushed across my 
E|---------------------------------------------------------------------| face 

e|---------------------------------------------------------------------| Verse 1 
B|---9/11-7-7---2-11-7-7-6-6---2---0-2---------------------------------| 
G|-------------------------------------3-------------------------------| Nights are good/And that's 
D|---------------------------------------------------------------------| the way it should be 
A|---------------------------------------------------------------------|
E|---------------------------------------------------------------------|

e|---------------------------------------------------------------------| Pre-Chorus 
B|---4-7-4-7-7-14-11---7-6-4---4-7-4-7-7-7-14-11---7-6-4---2-----------|
G|---------------------------------------------------------------------| You make me sing oh, la la la/
D|---------------------------------------------------------------------| You make a girl go oh oh oh/
A|---------------------------------------------------------------------| I'm in love, love 
E|---------------------------------------------------------------------|

e|---------------------------------------------------------------------| Chorus 
B|---0---4-7-7-2-4-2---4-----2---0---4-7-7-2-2---------11-9-7----------|
G|-----------------------3-3-------------------3-3---------------------| Did you see that shooting star
D|-------------------------------------------------4-4-----------------| tonight?/Were you dazzled by 
A|---------------------------------------------------------------------| the same constellation? 
E|---------------------------------------------------------------------| 

e|---------------------------------------------------------------------| Chorus 
B|---4-4-7-7-2-2-------2-11-9---4-4-7-4-4-7-4-7-4-4-2-2----------------|
G|---------------3-3---------------------------------------------------| Did you and Jupiter conspire 
D|---------------------------------------------------------------------| to get me?/I think you and 
A|---------------------------------------------------------------------| the Moon and Neptune got it 
E|---------------------------------------------------------------------| right 

e|---------------------------------------------------------------------| Chorus   
B|---2-2-2-9-7-7---6-4---7---6-4---------------------------------------|
G|---------------------------------------------------------------------| Cause now I'm shining bright,
D|---------------------------------------------------------------------| so bright/Bright,so bright 
A|---------------------------------------------------------------------|
E|---------------------------------------------------------------------|

e|---------------------------------------------------------------------| Verse 2  
B|---2-7-7-7-2-2-----2---------7-7-7-7-2-2-----2-----------------------|
G|---------------3-3---3-1-----------------3-3---3---4-----------------| And I see colors in a 
D|-------------------------4-------------------------------------------| different way/You make what 
A|---------------------------------------------------------------------| doesn't matter fade to grey 
E|---------------------------------------------------------------------|

e|---------------------------------------------------------------------| Verse 2   
B|---9/11-7-7---2-11-7-7-6-6---2---0-2---------------------------------|
G|-------------------------------------3-------------------------------| Life is good/And that's the 
D|---------------------------------------------------------------------| way it should be 
A|---------------------------------------------------------------------|
E|---------------------------------------------------------------------|

e|---------------------------------------------------------------------| Pre-Chorus 
B|---4-7-4-7-7-14-11---7-6-4---4-7-4-7-7-7-14-11---7-6-4---6 ----------|
G|---------------------------------------------------------------------| You make me sing oh, la la la/
D|---------------------------------------------------------------------| You make a girl go oh oh oh/
A|---------------------------------------------------------------------| I'm in love, love 
E|---------------------------------------------------------------------|

e|---------------------------------------------------------------------| Chorus 
B|---0---4-7-7-2-4-2---4-----2---0---4-7-7-2-2---------11-9-7----------|
G|-----------------------3-3-------------------3-3---------------------| Did you see that shooting star
D|-------------------------------------------------4-4-----------------| tonight?/Were you dazzled by 
A|---------------------------------------------------------------------| the same constellation?
E|---------------------------------------------------------------------|

e|---------------------------------------------------------------------| Chorus 
B|---4-4-7-7-2-2-------2-11-9---4-4-7-4-4-7-4-7-4-4-2-2----------------|
G|---------------3-3---------------------------------------------------| Did you and Jupiter conspire 
D|---------------------------------------------------------------------| to get me?/I think you and 
A|---------------------------------------------------------------------| the Moon and Neptune got it 
E|---------------------------------------------------------------------| right

e|---------------------------------------------------------------------| Chorus 
B|---2-2-2-9-7-7---9-4---2-4-6-7---7-9-4-2-1---------------------------|
G|-------------------------------------------3-1-----------------------| Cause now I'm shining bright,
D|---------------------------------------------------------------------| so bright/And I get lost in 
A|---------------------------------------------------------------------| your eyes 
E|---------------------------------------------------------------------|

e|---------------------------------------------------------------------| Chorus 
B|---0---4-7-7-2-4-2---4-----2---0---4-7-7-2-2---------11-9-7----------|
G|-----------------------3-3-------------------3-3---------------------| Did you see that shooting star
D|-------------------------------------------------4-4-----------------| tonight?/Were you dazzled by 
A|---------------------------------------------------------------------| the same constellation?
E|---------------------------------------------------------------------|

e|---------------------------------------------------------------------| Chorus 
B|---4-4-7-7-2-2-------2-11-9---4-4-7-4-4-7-4-7-4-4-2-2----------------|
G|---------------3-3--------------------------------------1------------| Did you and Jupiter conspire 
D|---------------------------------------------------------------------| to get me?/ I think you and 
A|---------------------------------------------------------------------| the Moon and Neptune got it 
E|---------------------------------------------------------------------| right

e|---------------------------------------------------------------------| Chorus 
B|---4-4-7-4-4-7-4-7-4-4-2-2-------2-2-2-11-11-11-11-11-11-7-7-4-4-2---|
G|-----------------------------1---------------------------------------| I think you and the Moon and  
D|---------------------------------------------------------------------| Neptune got it right/I think
A|---------------------------------------------------------------------| you and the Moon and Neptune  
E|---------------------------------------------------------------------| got it right

e|---------------------------------------------------------------------| Chorus 
B|---2-2-2-9-7-7---6-4---7---6-4---7---9-4---2-4-6-7---7-9-4-2---------|
G|-------------------------------------------------------------3-3-----| Cause now I'm shining bright, 
D|---------------------------------------------------------------------| so bright/Bright,so bright/
A|---------------------------------------------------------------------| Bright,so bright/And I get 
E|---------------------------------------------------------------------| lost in your eyes tonight             
Submit corrections

↑ Back to top | Tablatures and chords for acoustic guitar and electric guitar, ukulele, drums are parodies/interpretations of the original songs. You may use it for private study, scholarship, research or language learning purposes only