» » »

Dying Fetus - Tearing Inside The Womb Tabs

Artists:  A B C D E F G H I J K L M N O P Q R S T U V W X Y Z # 

Tearing Inside The Womb Tabs

(ver. 2) Click to play this song!
Dying Fetus
 Rating:
4/5 (4 votes)

 Tearing Inside The Womb lessons Tabs too difficult? Try these video lessons and learn fast
 
                Dying Fetus 
Tearing inside the Womb
Grotesque Impalement

tuned: D-A-D-G-B-E
RIFF A x 2
D-----------------------------------
A--1---0---1-----2-----1-----2---4--
D--1---0---1-000-2-000-1-000-2-0-4--
             ...   ...   ...   .

RIFF B x 4
D---------------------------
A--1-----2-----1-----2---4--
D--1-000-2-000-1-000-2-0-4--
   . ... . ... . ... . .

Play RIFF 1 x 4
then RIFF 2 x 4

RIFF C
D------5566------5566--
A----------------------
D-5566------5566-------

RIFF D
D------------------------
A-2---1-2--222-2--2-2-2--
D-2---1-2--222-2--2-2-2--
      . .  ... .  . . .

Play RIFF C x 1
then RIFF D x 1
then RIFF C x 1
then RIFF D x 1

RIFF E x 4
D------2h3p2h3p2--x3 ----------------
A-----------------   -----------1----
D-001-------------   -3-2-0-2-4---2--
  ...                 . . . . . . .

RIFF F x 4
D------I dont know-------|--------------
D------------------------|-3--5-2--3-1--

RIFF G x 3
D--------------------
A--------------------
D-33333-55-22222-00--

RIFF H x 4
D----------------------------------------------
A-2----6----3----56-56-2----6----3-3--6-5-3-0--
D-2-00-6-00-3-00-56-56-2-00-6-00-3-3--6-5-3-0--
    ..   ..   ..         ..   ..

RIFF I x 4
D----------------------------------------------------
A-0-----4-3-0-1-0------------0-----4-3-0-1-0-111111--
D-0--00-4-3-0-1-0-00-6-4-3-4-0--00-4-3-0-1-0-111111--
     .. . . . .   ..            .. . . . .   ......

RIFF J x 6
D------------------------------------------------
A-0----------0----------0----------3h4p3--2h3p2--
D-0-00-3h4-3-0-00-3h4-3-0-00-3h4-3---------------
    ..         ..         ..

RIFF K x 4
D---2----------------2-----------
A-----3-2--------------3-2-6--7--
D-3-------6-7-3-4--3-------6--7--

Play RIFF K x 4 (fast)
then RIFF K x 2

RIFF L x 2
D-------------------------------------
A-2--222---2--222---2--222------------
D-2--222---2--222---2--222--6666-7-7--

RIFF M x 2
D-----------------------------------------------------
A-2-------------2-------------2------------3333-4444--
D-2--666667777--2--666667777--2--666667777-3333-4444--

end RIFF L x 2


************************************
*  METAL RULES THIS ***ING WORLD  *
************************************
*                                  *
*                                  *
************************************
            
Submit corrections


        Tearing Inside The Womb lessons Hard to play? Try these video lessons and learn fast Tearing Inside The Womb lessons
        
↑ Back to top | Tablatures and chords for acoustic guitar and electric guitar, ukulele, drums are parodies/interpretations of the original songs. You may use it for private study, scholarship, research or language learning purposes only