» » »

Dying Fetus - Tearing Inside The Womb Tabs

Artists:  A B C D E F G H I J K L M N O P Q R S T U V W X Y Z # 

Tearing Inside The Womb Tabs

(ver. 1) Click to play this song!
Dying Fetus
 Rating:
4/5 (4 votes)

 Tearing Inside The Womb lessons Tabs too difficult? Try these video lessons and learn fast
 
                Copyright © Blunt Force Records 2000
Version 1.0 - July 16, 2003


.  - palm mute           /  - slide up to
\  - slide down to       ~  - vibrato
h  - hammer on           b  - Bend
p  - pull off            Suffixes for bend
t  - tap                 f  - full bend    h - half bend
ph - pinched harmonic    q  - quarter bend t - tap bend
*  - see comment         ^  - Hold bend    r release bend
x  - Stuccatto           ~  - vibrato bend
,  - slight palm mute    () - ghost note, sustained note
"  - tremolo note        <> - Trill

Tuning: C# G# E B F# C#

Riff 1
|-----------------------|
|-----------------------|
|-----------------------|
|-8----------7----------|
|-6----------5----------|
|-----------------------|
                          
|------------------------------------|
|------------------------------------|
|------------------------------------|
|----------------------------------4-|
|-2--------3--2--------------3--2--2-|
|-0--0-0-0-1--0--0--0--0-0-0-1--0----|
     . . .       .  .  . . .

Riff 2
|-------------------------------------|
|-------------------------------------|
|-------------------------------------|
|----------------------------------4--|
|-2--------3--2--------------3--2--2--|
|-0--0-0-0-1--0--0--0--0-0-0-1--0-----|
     . . .       .  .  . . .

Riff 1

Riff 3A
|-----------------------------------------------------------------|
|-----------------------------------------------------------------|
|-----------------------------------------------------------------|
|-------------------7"--------------------------------------------|
|-------4"----5"----------2------2--2------2-2-2-2---2---2--2--2--|
|-0"----------------------0------0--0------0-0-0-0---0---0--0--0--|
                                 .  .      . . . .   .   .  .  .  

Riff 3B
|-----------------------------------------------------------------|
|-----------------------------------------------------------------|
|-----------------------------------------------------------------|
|-------------------7"--------------------------------------------|
|-------4"----5"----------2---------------------------------------|
|-0"----------------------0---------------------------------------|

Riff 4
|-----------------------|
|-----------------------|
|-----------------------|
|-----------------------|
|-2---/-7h8p7h8p7h8p7h8-|
|-0---------------------|

|-----------------------|
|-----------------------|
|-----------------------|
|-----------------------|
|-2---/-7h8p7h8p7h8p7h8-|
|-0---------------------|

|-----------------------|
|-----------------------|
|-----------------------|
|-----------------------|
|-2---/-7h8p7h8p7h8p7h8-|
|-0---------------------|

|-----------------|
|-----------------|
|-----------------|
|-8-----------9---|
|-6-9-2-9-8-2-7---|
|---7-0-7-6-0-----|
  . . . . . .

Riff 5A
|-----------------------------------------------------------|
|-----------------------------------------------------------|
|-----------------------------------------------------------|
|-----------------------------------------------------------|
|-------2"---1"---8"---7"---2"---1"---2"---4------5--3------|
|-0"---------------------------------------2------3--1------|

Riff 5B
|-----------------------|
|-----------------------|
|-----------------------|
|-----------------------|
|--------2"---------1"--|
|-2"---------1"---------|

Riff 6
|--------------------------------------------------------|
|--------------------------------------------------------|
|--------------------------------------------------------|
|----------4------------------------------------3--------|
|-2--------2--------3--------4/5--4/5--2--------1--------|
|-0----0-0------0-0-1----0-0-2/3--2/3--0----0-0------0-0-|
       . .      . .      . .                . .      . .

|----------------|
|----------------|
|----------------|
|----------------|
|-3-3--6-5--3-2--|
|-1-1--4-3--1-0--|

Riff 7
|-----------------------------------|
|-----------------------------------|
|-----------------------------------|
|---------------------------5-4-2-4-|
|-2--------5-4-2-4-2--------3-2-0-2-|
|-0----0-0-3-2-0-2-0----0-0---------|
       . . . . . .      . . . . . .

ending 1
|----------------------------------|
|----------------------------------|
|----------------------------------|
|----------------------------------|
|-2--------5-4-2-4-3-3-3-3-3-3-5-4-|
|-0----0-0-3-2-0-2-1-1-1-1-1-1-3-2-|
       . . . . . . . . . . . . . .

ending 2
|------------------------------|
|------------------------------|
|------------------------------|
|------------------------------|
|-2--------5-4-2-4-3-3--5-4--3-|
|-0----0-0-3-2-0-2-1-1--4-3--1-|
       . . . . . .     

Riff 8
|-------------------|
|-------------------|
|-------------------|
|-------------------|
|-2--------5/6-3----|
|-0----0-0-3/4-1----|
       . . 

|-------------------|
|-------------------|
|-------------------|
|-------------------|
|-2--------5/6-3----|
|-0----0-0-3/4-1----|
       . . 
|-------------------------------------|
|-------------------------------------|
|-------------------------------------|
|-------------------------------------|
|-2--------5/6-3----3-4-3----2-3-2----|
|-0----0-0-3/4-1----------------------|
       . . 

Riff 9
|-----------------------------------------|
|-----------------------------------------|
|-----------------------------------------|
|-----------------------------------------|
|------7----------------------------------|
|-0---------8----7----4----5----1----2~~~-|
       
ending 1
|---------------------------------------|
|---------------------------------------|
|---------------------------------------|
|---------------------------------------|
|------7--------------6--------7--------|
|-0---------8----7----4--------5--------|

ending 2
|-----------------------------------------|
|-----------------------------------------|
|-----------------------------------------|
|-----------------------------------------|
|------7--------------6---6-6---6-7-7-7-7-|
|-0---------8----7----4---4-4---4-5-5-5-5-|

Riff 10
|-------------------------------------------------|
|-------------------------------------------------|
|-------------------------------------------------|
|-------------------------------------------------|
|-------7"----------------------------------------|
|-0"----------8"----7"----4"----5"----1"----2"----|

ending 1
|---------------------------------------------|
|---------------------------------------------|
|---------------------------------------------|
|---------------------------------------------|
|-------7"------------------------------------|
|-0"----------8"----7"----4"--------5"--------|

ending 2:
|-------------------------------------|
|-------------------------------------|
|-------------------------------------|
|-------------------------------------|
|-------7"----------------6--6--7--7--|
|-0"----------8"----7"----4--4--5--5--|


riff 10
|-----------------------------------------|
|-----------------------------------------|
|-----------------------------------------|
|------9----------------------------------|
|-2----7---10----9----6----7----3----4----|
|-0---------8----7----4----5----1----2----|


|---------------------------------------|
|---------------------------------------|
|---------------------------------------|
|------9--------------------------------|
|-2----7---10----9----6--------7--------|
|-0---------8----7----4--------5--------|

Riff 11
|---------------------------------------------------------------|
|---------------------------------------------------------------|
|---------------------------------------------------------------|
|---------------------------------------------------------------|
|-2-------------2-------------2---------------------------------|
|-0----0-0-0----0----0-0-0----0----0-0-0----2"--------3"--------|
       . . .         . . .         . . .

Riff 12
|---------------------------------------------------|
|---------------------------------------------------|
|---------------------------------------------------|
|---------------------------------------------------|
|-2------------------------2------------------------|
|-0----2"--------3"--------0----2"--------3"--------|

|-----------------------------------------------|
|-----------------------------------------------|
|-----------------------------------------------|
|-----------------------------------------------|
|-2------------------------4---4-4---4-5-5-5-5--|
|-0----2"--------3"--------2---2-2---2-3-3-3-3--|

riff 11

ending
|--------------------------------------------------------|
|--------------------------------------------------------|
|--------------------------------------------------------|
|--------------------------------------------------------|
|-2-------------2-------------2-----------------------5--|
|-0----0-0-0----0----0-0-0----0----0-0-0----2"--------3--|
       . . .         . . .         . . .
            
Submit corrections


        Tearing Inside The Womb lessons Hard to play? Try these video lessons and learn fast Tearing Inside The Womb lessons
        
↑ Back to top | Tablatures and chords for acoustic guitar and electric guitar, ukulele, drums are parodies/interpretations of the original songs. You may use it for private study, scholarship, research or language learning purposes only