» » »

Dying Fetus - Streaks Of Blood Tabs

Artists:  A B C D E F G H I J K L M N O P Q R S T U V W X Y Z # 

Streaks Of Blood Tabs

(ver. 3) Click to play this song!
Dying Fetus
 Rating:
4/5 (4 votes)

 Streaks Of Blood lessons Tabs too difficult? Try these video lessons and learn fast
 
                riff1 
4---4-------------------
3---4-------5-----3---2
2---2-------5-----3---2
1-------0---3-----1---0 
 
 fill 
3--\\\\\\\\\\\\\\\\\\
2--\\\\\\\\\\\\\\\\\\\
1--\\\\\\\\\\\\\\\\\\\\ 
 
riff 2 

3-----------------3---------------------------
2---------2-2-2-2-3-2-2-2-2-2-2-2----4/5---4/7
1---------0-0-0-0-1-0-0-0-0-0-0-0----2/3---2/5  

riff 3 
3----4--4-----------------------4--5-------------
2----4--4-----------------------4--5--------------
1----2--2--00001100--------2--3---00001100
 
3----4-4--------------4--6------------
2----4-4--------------4--6----------------
1----2-2--00001100----2--4---000011000- 

riff 3
3---------------------4---5
2---------------------4---5
1---0-0-0-0-1-1-0-0---2---3 

3----------------------4---6
2----------------------4---6
1----0-0-0-0-1-1-0-0---2---4 

riff 5 

3-------4-4----4-4---5-5---4-4---
2-------4-4----4-4---5-5---4-4---
1-------2-2----2-2---3-5---2-2---- 

3-----4-4----5-5----4-4--
2-----4-4----5-5----4-4---
1-----2-2----3-3----2-2---
riff 6
3----------------------------------
2----------------------------------
1------0000022222333332222200000- 

riff 7 

3------5-4----6-5-4----7
2------5-4-2--6-5-4-2--7
1------3-2-0--4-3-2-0--5  

repeat riff 3 & 4  

riff 8 

3----------------------3--3
2----------------------3--3
1------0-0-0-0-1-1-0-0-1--1--

3-----------------------4--4
2-----------------------4--4
1------0-0-0-0-2-2-0-0--2--2 
  

riff 9 
3---3-4--3-5--------------------------------
2---3-4--3-5----------------------------
1---1-2--1-3----3333222244445555 

riff 10 
3---5-4-----6-----5-4----7
2---5-4-2---6-----5-4-2--7
1---3-2-0---4-----3-2-0--5  

fill 

3----2--(2)
2----2--(2)
1----0--(0)
            
Submit corrections


        Streaks Of Blood lessons Hard to play? Try these video lessons and learn fast Streaks Of Blood lessons
        
↑ Back to top | Tablatures and chords for acoustic guitar and electric guitar, ukulele, drums are parodies/interpretations of the original songs. You may use it for private study, scholarship, research or language learning purposes only