» » »

Dying Fetus - Streaks Of Blood Tabs

Artists:  A B C D E F G H I J K L M N O P Q R S T U V W X Y Z # 

Streaks Of Blood Tabs

(ver. 1) Click to play this song!
Dying Fetus
 Rating:
4/5 (4 votes)

 Streaks Of Blood lessons Tabs too difficult? Try these video lessons and learn fast
 
                Dying Fetus
Streaks of Blood
Grotesque Impalement

tuned: D-A-D-G-B-E
RIFF A x 4
D----------------
A-7-----5--3--0--
D-7---0-5--3--0--

RIFF B x 8
D---------------------
A-000010000000-45-45--
D-000010000000-45-45--
  ............

Play RIFF A x 2

RIFF C x 4
D--------------------------------
A--------------------------------
D-1-000-1-000000-1-000-4-000000--
    ...   ......   ...   ......   

RIFF D x 4
D-------------------
A-------------4--5--
D-0000010000-04-05--
  ..........

RIFF E x 4
D------------------
A-0000100---4---5--
D-0000100-0-4-0-5--
  .......

RIFF G x 4
D-------------------
A-0-0----2-2---3-3--
D-0-0----2-2---3-3--

RIFF H x 4
D---------------------------------
A---------------------------------
D-000000000000-2222222-444-11111--

RIFF I x 10
D------------------
A-0-2-1-0-2-1-0-4--
D-0-2-1-0-2-1-0-4--
  . . . . . . .

Play RIFF C x 4
then RIFF E x 8

RIFF J x 6
D---------------
A----------0-0--
D-00001000-0-0--
  ........ . .

RIFF K x 4
D---------------
A-33334333-0-0--
D----------0-0--

Play RIFF J x 4
then RIFF K x 4

RIFF L x 4
D--------------------------
A-0-0--1-0-----------------
D-0-0--1-0--333222-333444--
       . .

RIFF M x 10
D--------------
A-0--2--1--3^--
D-0--2--1--3^--
  .  .  .

after Erik drums
D-----------------------
A-0---------0------12/--
D-0---------0------12/--

Play RIFF B x 8
then RIFF L x 6
end RIFF I x 14


************************************
*  METAL RULES THIS ***ING WORLD  *
************************************
*                                  *
*                                  *
************************************
            
Submit corrections


        Streaks Of Blood lessons Hard to play? Try these video lessons and learn fast Streaks Of Blood lessons
        
↑ Back to top | Tablatures and chords for acoustic guitar and electric guitar, ukulele, drums are parodies/interpretations of the original songs. You may use it for private study, scholarship, research or language learning purposes only