» » »

Dying Fetus - Pissing In The Mainstream Tabs

Artists:  A B C D E F G H I J K L M N O P Q R S T U V W X Y Z # 

Pissing In The Mainstream Tabs

(ver. 3) Click to play this song!
Dying Fetus
 Rating:
4/5 (4 votes)

 Pissing In The Mainstream lessons Tabs too difficult? Try these video lessons and learn fast
 
                Dying Fetus
"p**sing in the mainstream"

tuning: Db Gb B E Ab Db

. = palm mute
/ = slide

riff 1:
|-------------------------------------------------------------------------|
|-------12-16-12-------------------------------------------15-19-15-------|
|-----12--------12-------13-16-13---------15-18-15-------15--------15-----|
|---13------------13---13--------13-----16--------16---16------------16---|
|-14-----------------14------------14-17-------------17----------------17-|
|-------------------------------------------------------------------------|

riff 2:|
|-----------------------------------------------------|
|-----------------------------------------------------|
|-----------------------------------------------------|
|-----------------------------------------------------|
|-----------------------------------------------------|
|-6--7--0--0--5--6--0--0--4--5--0--0--1-2-3-2-1-0-0-0-|
 |_________________tremolo picking___________________|

riff 3:
|---------------------------------------------|
|---------------------------------------------|
|---------------------------------------------|
|-3-------3-------3---------------------------|
|-1-5-3-5-1-5-3-5-1-5-3-5-6-6-6-6-6-6-6-6-6-6-|
|---3-1-3---3-1-3---3-1-3---------------------|
  . . . . . . . . . . . .|__tremolo picking__|
          
|---------------------------------------------|
|---------------------------------------------|
|---------------------------------------------|
|-3-------3-------3---------------------------|
|-1-5-3-5-1-5-3-5-1-5-3-5---------------------|
|---3-1-3---3-1-3---3-1-3-6-6-6-6-6-6-6-6-6-6-|
  . . . . . . . . . . . .|__tremolo picking__|
               
riff 4:
|---------------------------------|
|---------------------------------|
|---------------------------------|
|---------------------------------|
|---8-9---7-8---6---5-6-5---4-5-4-|
|-0-6-7-0-5-6-0-4-0-3-4-3-0-2-3-2-|
  .     .     .   .       .

riff 5:
|---------------------------------------------------------------|
|---------------------------------------------------------------|
|---------------------------------------------------------------|
|---------------------------------------------------------4/3---|
|-2-2-2-2-2-2-2-2-2-2-4---5---4---------------------------2/1---|
|-0-0-0-0-0-0-0-0-0-0-2---3---2---0-0-0-0-0-0-0-0-0-0-0-0-------|
  . . . . . . . . . . .   .   .  |____tremolo picking____|
                                 
riff 6:
|---------------------------------------------|
|---------------------------------------------|
|-------------------2-3-5---------------------|
|-------------3-4-6-------3-4-6---------------|
|-------4-5-7-------------------4-5-7---------|
|-5-6-8-------------------------------1-1-1-1-|
 |______________tremolo picking______________|


outro:
|-----------------------------|
|-----------------------------|
|-----------------------------|
|-3-------3-------3-------3---|
|-1-5-3-5-1-5-3-5-1-5-3-5-1---|
|---3-1-3---3-1-3---3-1-3-----|
  . . . . . . . . . . . .
            
Submit corrections


        Pissing In The Mainstream lessons Hard to play? Try these video lessons and learn fast Pissing In The Mainstream lessons
        
↑ Back to top | Tablatures and chords for acoustic guitar and electric guitar, ukulele, drums are parodies/interpretations of the original songs. You may use it for private study, scholarship, research or language learning purposes only