» » »

Dying Fetus - Pissing In The Mainstream Tabs

Artists:  A B C D E F G H I J K L M N O P Q R S T U V W X Y Z # 

Pissing In The Mainstream Tabs

(ver. 2) Click to play this song!
Dying Fetus
 Rating:
4/5 (4 votes)

 Pissing In The Mainstream lessons Tabs too difficult? Try these video lessons and learn fast
 
                Ok. I have said it before and I will say it again, Dying Fetus rules! This song 
proves it. One of their best and easiest songs (sort of). Enjoy!


Part 1

|--------7-10-7------------------------------------
|------8--------8---------9-12-9-------------------
|----8------------7----10--------10----------------
|-10----------------12-----------------------------
|--------------------------------------------------
|--------------------------------------------------

 
|-------------------------10-14-10----------------
|-------11-14-11-------12----------12-------------
|----12----------12—12----------------12----------
|-14----------------------------------------------   part 1 (4x)
|-------------------------------------------------
|-------------------------------------------------      

 

part 2
|-------------------------------------------------
|-------------------------------------------------
|-------------------------------------------------
|-------------------------------------------------
|-------------------------------------------------
|-6-7-0-0-5-6-0-0-45-0-0-0-1-2-3-2-1-0------------

tr……………………………………………………………………………………………

 

part 3
|--------------------------------------------------
|--------------------------------------------------
|--------------------------------------------------       (2x)
|-3-------3-------3--------------------------------
|-1-5-3-5-1-5-3-5-1-5-3-5—6------------------------
|---3-1-3---3-1-3---3-1-3--------------------------

 

|------------------------------
|------------------------------
|------------------------------
|-3-------3-------3------------
|-1-5-3-5-1-5-3-5-1-5-3-5------
|---3-1-3---3-1-3---3-1-3-6----

 
Repeat First 3 Parts


|-------------------------------------------------
|-------------------------------------------------
|-------------------------------------------------
|-------------------------------------------------    (8x)
|-2-8-9-2-7-8-2-6--5-6-5-2-4-5-4------------------
|-0-6-7-0-5-6-0-4--3-4-3-0-2-3-2------------------

 

-------------------------------------------------
-------------------------------------------------
-------------------------------------------------
------------------------------------------4-3----     (4x)
-2-2-2-2-2-2-2-2---4-5-4------------------2—1----
-0-0-0-0-0-0-0-0---2-3-2-0-0-0-0-0-0-0-0---------

                         tr…………………………………


-------------------------------------------------
--------------------------------------------(4x)-
-------------------2-3-5-------------------------
-------------3-4-6-------3-4-6-------------------
-------4-5-7-------------------4-5-7-------------
-5-6-8-------------------------------1-1-1-1-----

 tr……………………………………………………………………………………………………………


--------|-----------------------------------------
--------|-----------------------------------------
-part-2-|-----------------------------------------
--(4x)--|-3-------3-------3-------8---------------
--------|-1-5-3-5-1-5-3-5-1-5-3-5-6---------------
--------|---3-1-3---3-1-3---3-1-3-----------------



There! ***ing done and what a hard song too but a great band! Have fun!
            
Submit corrections


        Pissing In The Mainstream lessons Hard to play? Try these video lessons and learn fast Pissing In The Mainstream lessons
        
↑ Back to top | Tablatures and chords for acoustic guitar and electric guitar, ukulele, drums are parodies/interpretations of the original songs. You may use it for private study, scholarship, research or language learning purposes only