» » »

Dwight Yoakam - Tears For Two Tabs

Artists:  A B C D E F G H I J K L M N O P Q R S T U V W X Y Z # 

Tears For Two Tabs

(ver. 1) Click to play this song!
Dwight Yoakam
 Rating:
4/5 (4 votes)

 Tears For Two lessons Tabs too difficult? Try these video lessons and learn fast
 
                Dwight Yoakam  -  Tears For Two (tab)



Play all of the lead in this song heavily muted with a slight echo effect.


F     =   133211                             G     =   320003

Bb    =   x13331                             C     =   x32010


*****************************************************************************************


F  G  Bb  F    G  Bb  F
INTRO



F                 G       Bb              F
Luck found me too late to be what I could use,
                       G              Bb            F
And caught me tempting fate still red-handed and confused.
                  G             Bb               F  
Pride has sent me where there's not much left to lose,
                    G            Bb                F
Then cruelly let me care, and convinced me I could choose.

 

      C          Bb                  F 
About you, as if there was one small chance
      C            Bb           F
To be through with everything I can't.
                         Bb        F
So even if this worn out heart was new,
                    C          F
And all its foolish hopes were true.
                  Bb         F
This one lifetime just won't do,
                         C         F     G  Bb  F    G  Bb  F
'Cause I've cried enough tears for two.  (intro picking) 



F             G         Bb               F
Dreaming only served to take my restless sleep,
                            G       Bb              F
Stealing comfort from these eyes so desperate for relief.
                G             Bb             F
Fueled by empty promises they never meant to keep,
                G                 Bb               F
Leaving me with nothing more than endless years to weep.



      C          Bb                  F 
About you, as if there was one small chance
      C            Bb           F
To be through with everything I can't.
                         Bb        F
So even if this worn out heart was new,
                    C          F
And all its foolish hopes were true.
                  Bb         F
This one lifetime just won't do,
                         C         F     
'Cause I've cried enough tears for two. 



F  G  Bb  F    G  Bb  F
FIRST GUITAR SOLO



      C          Bb                  F 
About you, as if there was one small chance
      C            Bb           F
To be through with everything I can't.
                         Bb        F
So even if this worn out heart was new,
                    C          F
And all its foolish hopes were true.
                  Bb         F
This one lifetime just won't do,
                         C         F     
'Cause I've cried enough tears for two.  



F  G  Bb  F    G  Bb  F
SECOND GUITAR SOLO      (repeat chords to fade)



*****************************************************************************************



INTRO

  
   F    G    Bb       F       G     Bb      F

E---------------1---------------------1-----1---|
B----1--3-0----3-----------1--3-0----3----------|
G---2------0--3----3-2----2------0--3----2h3----|
D--3------------------3--3----------------------|
A-----------------------------------------------|
E-----------------------------------------------|



FIRST GUITAR SOLO


   F         G        Bb     F                    G          Bb               F
 
E----------------------8-10-8--8---------------------------------------------------|
B----------------------------11-11-10------------------------10-11-13-11-10--------|
G--9-10-9-10-9-10-----------------------9-10-9-10-12-10-9-12---------------12-10---|
D----------------12-10-------------------------------------------------------------|
A-------------------------------------12-------------------------------------------|
E----------------------------------------------------------------------------------|



SECOND GUITAR SOLO


   F    G     Bb      F       G     Bb      F                     G
                                                
E---------------1---------------------1-----1--:-----------------------------
B----1--3-0----3-----------1--3-0----3---------:-----------------------------
G---2------0--3----3-2----2------0--3----2h3---:--10-9-10-9-12-10-9-10-12-10-
D--3------------------3--3---------------------:-----------------------------
A----------------------------------------------:-----------------------------
E----------------------------------------------:-----------------------------
  
   Bb               F                  G              Bb            F
   
E-----------------------------------------------------13-12-10----------
B--10-11-10-11-10----------------------13-11-10-11-10---------13-11-13--
G----------------12-10---9-10-9-10--------------------------------------
D---------------------------------12-10---------------------------------
A-----------------------------------------------------------------------
E-----------------------------------------------------------------------

           G       Bb      F                  G       Bb                F  

                                     (fades out 2nd time through)
E--20--20--20--20--20--20--17-18-17---20--20--20--20--17-18-17-15-17-15-13--:-|
B----18--18--18--18--18--18---------18--18--18--18--18----------------------:-|
G---------------------------------------------------------------------------:-|
D---------------------------------------------------------------------------:-|
A---------------------------------------------------------------------------:-|
E---------------------------------------------------------------------------:-|


            
Submit corrections


        Tears For Two lessons Hard to play? Try these video lessons and learn fast Tears For Two lessons
        
↑ Back to top | Tablatures and chords for acoustic guitar and electric guitar, ukulele, drums are parodies/interpretations of the original songs. You may use it for private study, scholarship, research or language learning purposes only