» » »

Dwight Yoakam - Somewhere Tabs

Artists:  A B C D E F G H I J K L M N O P Q R S T U V W X Y Z # 

Somewhere Tabs

(ver. 1) Click to play this song!
Dwight Yoakam
 Rating:
4/5 (4 votes)

 Somewhere lessons Tabs too difficult? Try these video lessons and learn fast
 
                Dwight Yoakam  -  Somewhere  (tab)



E     =   022100                                A     =   x02220

D     =   xx0232                                B     =   x24442

F#    =   244322                                C     =   x32010

G     =   320003


****************************************************************************************



E           A                      E           
Somewhere tonight, two hearts both needing.
            A                    E
Somewhere tonight, each one all alone.
A           D                        A
Somewhere tonight, a chance for them pleading.
E           A                        E
Somewhere tonight that soon could be gone.



B                            F#  
Somewhere they might still try,
B                           F#
Somewhere to claim love's right,
A                                 B
Somewhere even frail trust can survive.

So I don't wanna be,
E           A                         E
Somewhere tonight with my heart still needing.
            A                       E
Somewhere tonight, a chance that is gone.



C                                         E
Somewhere at sometime there won't have to be,
C                                           E
A look that we take back, or touch we can't mean.
G                 A                              B
Somewhere tonight, its waiting inside of you and me,

Oh, I don't want to be...



E  A  E    A  E    A  D  A   E  A  E
LEAD GUITAR SOLO



B                            F#
Somewhere they might still try,
B                           F#
Somewhere to claim love's right,
A                                 B
Somewhere even frail trust can survive.

So I don't wanna be,
E           A                         E
Somewhere tonight with my heart still needing.
            A                       E 
Somewhere tonight, a chance that is gone.



E   A   E     (repeat to fade)
INSTRUMENTAL  



****************************************************************************************

\   =   slide down                               h   =   hammer-on

/   =   slide up

****************************************************************************************



LEAD GUITAR SOLO


   E               A               E                        A               E

E-------------------------------------------------------------------------------------
B-------------------------------------------------------------------------------------
G-------------------------------------------------------------------------------------
D-------------------------------------------------------------------------------------
A--7-7-7-7-7\6-6-6-6\4-4-4-4\2-2-2-2h4-2----7-7-7-7-7\6-6-6-6\4-4-4-4\2-2-2-2/4-2/7---
E---------------------------------------0---------------------------------------------

      A      D       A      E            A      E          B

E--------------------------------------------------------------|
B---------------------------5\4--------------------------------|
G------------------------------4-2-1h2-4-----------------------|
D------------0--------------------------2-----------2\1--------|
A-----0---2h4----4h5-7---------------------2---2-------2-------|
E--2h4------------------0-------------------4h5-0-------4--2---|



            
Submit corrections


        Somewhere lessons Hard to play? Try these video lessons and learn fast Somewhere lessons
        
↑ Back to top | Tablatures and chords for acoustic guitar and electric guitar, ukulele, drums are parodies/interpretations of the original songs. You may use it for private study, scholarship, research or language learning purposes only