Home » D » Dwight Yoakam »

Dwight Yoakam - Nothing's Changed Here Tabs

Artists:  A B C D E F G H I J K L M N O P Q R S T U V W X Y Z # 

Nothing's Changed Here Tabs

(ver. 1) Click to play this song!
Dwight Yoakam
Dwight Yoakam  -  Nothing's Changed Here  (lead)



I've only tabbed each riff the first time it occurs in the
song, along with the time (in minutes and seconds) that it
is played.
These riffs just repeat over again throughout the song.


***************************************************************

/   =   slide up                        \   =   slide down

!   =   natural harmonic

***************************************************************


INTRO


  E        B     A             E

E--0-2-4---7\--2-----------------------------|
B--------------------------------------------|
G--1-2-4/8-8\--2-----------------------------|
D------------------2-4-4/5-4-2---------------|
A-----------------4-----------4---7!---------|
E------------------------------0----7!-12!---|


RIFFS


  [0:14]         [0:18]         [0:23]

         E   A      E             B   A

E--------4-2-----------4-2-0-----------------
B------------2--------------------4-3-2------
G--------4-2--------2/4-2--1------4-3-2------
D------------2-------------------------------
A--------------------------------------------
E--------------------------------------------

  [0:27]              [0:45]

   E                   E                E7

E-------------------------------------------|
B-------------------------------------------|
G-------------------------------------------|
D---2-4-4/5-4-2---------2-4-4/5-4-2-2-1-0---|
A--4-----------4-------4-----------4--------|
E---------------0---------------------------|

            
Submit corrections

↑ Back to top | Tablatures and chords for acoustic guitar and electric guitar, ukulele, drums are parodies/interpretations of the original songs. You may use it for private study, scholarship, research or language learning purposes only