» » »

Dwight Yoakam - Crazy Little Thing Tabs

Artists:  A B C D E F G H I J K L M N O P Q R S T U V W X Y Z # 

Crazy Little Thing Tabs

(ver. 1) Click to play this song!
Dwight Yoakam
 Rating:
4/5 (4 votes)

 Crazy Little Thing lessons Tabs too difficult? Try these video lessons and learn fast
 
                bass note break before solo:


-------------------------10-----------
-----------------------10----12\------
---------------------11------12\------
-------------------12--------12\------
-----------------12-------------------
8-7-6---3-2-1--10---------------------




solo:

/8-7-6--4------6---6---6--4--4-----------
-----------------------------------------
/8-7-6--5---/6---6---6----5--------------
------------------------------------------
------------------------------------------
----------------------------------------



--8----10--12--/13-12--10--8-------------
----------------------------------------
9---10-----12--/14-12--10--9-------------
----------------------------------------
---------------------------------------
--------------------------------------



/18-18\16--16\--14------------------------
--------------------16---16-16-16--------
/18-18\16--16\--15--15b^-17-15-13--------
----------------------------------15-13---
----------------------------------------
------------------------------------------



--10----12----13---13---14------15--------
------------------------------------------
11---12----12---13---13/---14---16--------
------------------------------------------
------------------------------------------
---------------------------------------------



1/---8-7-6-5--------------------------------------
-------------8-7-6-5----------------------------5\
---------------------8-7-6-5--------------------5\
-----------------------------8-7-6-5------------5\
--------------------------------------8-7-5--/7---
--------------------------------------------------
            
Submit corrections


        Crazy Little Thing lessons Hard to play? Try these video lessons and learn fast Crazy Little Thing lessons
        
↑ Back to top | Tablatures and chords for acoustic guitar and electric guitar, ukulele, drums are parodies/interpretations of the original songs. You may use it for private study, scholarship, research or language learning purposes only