Home » D » Dropkick Murphys »

Dropkick Murphys - Johnny I Hardly Knew Ya Tabs

Artists:  A B C D E F G H I J K L M N O P Q R S T U V W X Y Z # 

Johnny I Hardly Knew Ya Tabs

(ver. 2) Click to play this song!
Dropkick Murphys
Solo/Intro thingy, you know what I mean
e -------------------------------------------------------------------------|
b -------------------------------------------------------------------------|
g -------------------------------------------------------------------------|
d -------------------------------------------------------------------------|
a 0-2-2-2-2-4-5-4-5-2-0-0-0-2-2-2-2-4-5-4-5-7-9-5-7-9-5-7-9-9-9-9-10-9-7-7-|
e ---------------------2-2-------------------------------------------------|

e ------------------------------------------------------------------------|
b ------------------------------------------------------------------------|
g ------------------------------------------------------------------------|
d ------------------------------------------------------------------------|
a 7-7-9-7-5-5-5-5-7-5-4-4-5-7-9-7-5-7-5-4-5-4-2-4-2-0-2-2-2-2-0-2-2-------|
e ------------------------------------------------------------------------|

Verse/Ref/pretty much everything else in the song sounds like this
e ------------------------------------------------------------------------|
b ------------------------------------------------------------------------|
g ------------------------------------------------------------------------|
d ------------------------------------------------------------------------|
a 7-7-7-7-7-7-7-7-7-7-7-7-7-7-7-5-x-5-5-5-5-5-x-5-5-5-5-------------------|
e 5-5-5-5-5-5-5-5-5-5-5-5-5-5-5-3-x-3-3-3-3-3-x-3-3-3-3-------------------|
Hail on the road to sweet athy hurroo, hurroo

e ------------------------------------------------------------------------|
b ------------------------------------------------------------------------|
g ------------------------------------------------------------------------|
d ------------------------------------------------------------------------|
a 7-7-7-7-7-7-7-7-7-7-7-7-7-7-7-2-x-2-2-2-2-2-x-2-2-2-2-------------------|
e 5-5-5-5-5-5-5-5-5-5-5-5-5-5-5-0-x-0-0-0-0-0-x-0-0-0-0-------------------|
Hail on the road to sweet athy hurroo, hurroo

e ------------------------------------------------------------------------|
b ------------------------------------------------------------------------|
g ------------------------------------------------------------------------|
d 9-9-9-9-9-9-9-7-7-7-7-7-7-7-5-5-5-5-5-5-5-4-4---------------------------|
a 7-7-7-7-7-7-7-5-5-5-5-5-5-5-3-3-3-3-3-3-3-2-2---------------------------|
e ------------------------------------------------------------------------|
Hail on the road to sweet athy, a stick in the hand, a drop in the eye

e ------------------------------------------------------------------------|
b ------------------------------------------------------------------------|
g ------------------------------------------------------------------------|
d 9-x-x-7-x-x-5-x-x-2-x-x-------------------------------------------------|
a 7-x-x-5-x-x-3-x-x-2-x-x-7-7-7-7-7-5-7-7---------------------------------|
e ------------------------5-5-5-5-5-3-5-5---------------------------------|
A doleful damsel I did cry, Johnny I hardly knew ya

This last party pretty much repeats.
Check the song for correct timing.

Oh and by the way, I've never tabbed any songs but my own, so don't go to hard on me 
this is the first one I did haha.
            
Submit corrections

↑ Back to top | Tablatures and chords for acoustic guitar and electric guitar, ukulele, drums are parodies/interpretations of the original songs. You may use it for private study, scholarship, research or language learning purposes only