Home » D » Dropkick Murphys »

Dropkick Murphys - Johnny I Hardly Knew Ya Ukulele

Artists:  A B C D E F G H I J K L M N O P Q R S T U V W X Y Z # 

Johnny I Hardly Knew Ya Ukulele

(ver. 1) Click to play this song!
Dropkick Murphys
Intro:

e|---------------------------------------------------------------------------|
B|---------------------------------------------------------------------------|
G|------------0---0------------------0---0---2-4-0-4-0-4444-5-2222-4-0000----|
D|----2222--4---4---2-0---0---2222-4---4----------------------------------4--|
A|--2-------------------2---2------------------------------------------------|
E|---------------------------------------------------------------------------|

e|-----------------------------0----0---0---0--------------------------------------------|
B|-----------------------------0----0---0---0--------------------------------------------|
G|-----------------------------0----0---0---0--------------------------------------------|
D|-2-4-000-2-4-5-4-2222-00h2---0h2--0h2-0h2-2--------------------------------------------|
A|-----------------------------2----2---2---2--------------------------------------------|
E|-----------------------------0----0---0---0--------------------------------------------|

     Em
When on the road to sweet Athy,<-----Same for all verses chords never change
  Bm
Hurroo Hurroo
     Em
When on the road to sweet Athy,
  G
Hurroo Hurroo
     G              D
When on the road to sweet Athy
  Em                    Bm
A stick in the hand, A drop in the eye
   G       D     Em      Bm
A doleful damsel I heard cry
 Em
Johnny I hardly knew ya
 Em
Where are the eyes that looked so mild,
  Bm
Hurroo Hurroo
 Em
Where are the eyes that looked so mild,
 G
Hurroo Hurroo
  G                      D
Where are the eyes that looked so mild
     Em                 Bm
When my poor heart you first beguiled
 G         D        Em          Bm
Why did ya run from me and the child
 Em
Johnny I hardly knew ya

[Chorus:]
       Em
We had guns and drums and drums and guns,
  Bm
Hurroo Hurroo
       Em
We had guns and drums and drums and guns,
  G
Hurroo Hurroo
       G                  D
We had guns and drums and drums and guns
     Em          Bm
The enemy never slew ya
 Em
Johnny I hardly knew ya


  Em
Where are the legs with which you run,
  Bm
Hurroo Hurroo
  Em
Where are the legs with which you run,
  G
Hurroo Hurroo
  G                      D
Where are the legs with which you run,
      Em                Bm
When first you went to carry a gun
  G          D       Em       Bm
Indeed your dancing days are done
  Em
Johnny I hardly knew ya

        Em
We had guns and drums and drums and guns,
  Bm
Hurroo Hurroo
       Em
We had guns and drums and drums and guns,
  G
Hurroo Hurroo
       G                  D
We had guns and drums and drums and guns
     Em          Bm
The enemy never slew ya
 Em
Johnny I hardly knew ya


     Em
You hadn't an arm, you hadn't a leg,
  Bm
Hurroo Hurroo
     Em
You hadn't an arm, you hadn't a leg,
  G
Hurroo Hurroo
     G                  D
You hadn't an arm, you hadn't a leg
           Em                  Bm
You're a spinless, boneless, chickenless egg
        G          D            Em      Bm
You'll Have to be put with the bowl to beg
  Em
Johnny I hardly knew ya

   Em
We had guns and drums and drums and guns,
  Bm
Hurroo Hurroo
       Em
We had guns and drums and drums and guns,
  G
Hurroo Hurroo
       G                  D
We had guns and drums and drums and guns
     Em          Bm
The enemy never slew ya
 Em
Johnny I hardly knew ya

    Em
Im happy for to see ya home
  Bm
Hurroo Hurroo
     Em
Im happy for to see ya home
   G
Hurroo Hurroo
    G            D
Im happy for to see ya home
  Em              Bm
  Em
Johnny I hardly knew ya

Then you're done!! Yay! please comment and rate. 100% correct without a doubt. Oh and 
be nice guys, its my first tab.
            
Submit corrections

↑ Back to top | Tablatures and chords for acoustic guitar and electric guitar, ukulele, drums are parodies/interpretations of the original songs. You may use it for private study, scholarship, research or language learning purposes only