Home » D » Dropkick Murphys »

Dropkick Murphys - Johnny I Hardly Knew Ya Bass

Artists:  A B C D E F G H I J K L M N O P Q R S T U V W X Y Z # 

Johnny I Hardly Knew Ya Bass

(ver. 1) Click to play this song!
Dropkick Murphys


Tuning: standard

Intro

G|---------------------------------------24--04------------------------------|
D|-22--22--22--22--22-------20---0-------------------------------------------|
A|------------------------------2--------------------------------------------|
E|---------------------------------------------------------------------------|

when it gets heavy (0:26) verse and chorus

G|-----------------------------------------------24~444--04~444--------------|
D|--2~222-45-45--20~000---0~000-----2~222-45-45------------------------------|
A|-2---------------------2---------2-----------------------------------------|
E|---------------------------------------------------------------------------|

(0:35)                             (0:41)              ('Johnny I hardly')
                                                      |         |

G|-24~444--02~222-----------------024-022------------------------------------|
D|-----------------45~555--24~444---------045-044-002-2~222-0-22-------------|
A|---------------------------------------------------------------------------|
E|---------------------------------------------------------------------------|

(fist note played on 3:09)

G|--------------24--04-------2----4----0----4----2-4-0-4---------------------|
D|-20---0--------------------------------------------------------------------|
A|-----2---------------------------------------------------------------------|
E|---------------------------------------------------------------------------|



| /  slide up
| \  slide down
| h  hammer-on
| p  pull-off
| ~  vibrato
| +  harmonic
| x  Mute note
===============================================================================
            
Submit corrections

↑ Back to top | Tablatures and chords for acoustic guitar and electric guitar, ukulele, drums are parodies/interpretations of the original songs. You may use it for private study, scholarship, research or language learning purposes only