» » »

Dream Theater - Home Tabs

Artists:  A B C D E F G H I J K L M N O P Q R S T U V W X Y Z # 

Home Tabs

(ver. 2) Click to play this song!
Dream Theater
 Rating:
4/5 (4 votes)

 Home lessons Tabs too difficult? Try these video lessons and learn fast
 
                INTRO

E|--------------|----------------------------------------------------------------|
B|--------------|----------------------------------------------------------------|
G|--7--7--7--7--|--8--8--8--8--9--9--9--9--12-12-12-12-10-10-10-10-14-14-14-14---|
D|---0--0--0--0-|---0--0--0--0--0--0--0--0--0--0--0--0--0--0--0--0--0--0---0-----|
A|--------------|----------------------------------------------------------------|
E|--------------|----------------------------------------------------------------|
B|--------------|----------------------------------------------------------------|

E|--------------------------------------2-----|
B|---------------------------------------3----|
G|--12-12-12-12-15-15-15-15-14-14-14-14---2---|
D|-0--0--0--0--0--0--0--0--0--0--0--0------0--|
A|------------------------------------------0-|
E|--------------------------------------------|
B|--------------------------------------------|

E|---------------0-3-55-----------------|
B|---3-3-3h4p3---1-0-00-----------------|
G|--2-2-2--------0----------------------|
D|-0-----------2--------3h5p3p0---------| 2x
A|------------3----------------3h5p3p0--|
E|--------------------------------------|
B|--------------------------------------|

(bass)
E|-----------------------|-----------------------------------|
B|-----------------------|-----------------------------------|
G|-----7h8-5h7-7h8p7-5h7-|----7h8-5h7-3h5p3-2p0--------------|
D|-0-0----0---0----------|-0-0---0---0-----------------------|
A|-----------------------|-----------------------------------|
E|-----------------------|-----------------------------------|
B|-----------------------|-----------------------------------|

E|-----------------------|-----------------------------------|
B|-----------------------|-------------------11h13\\\--------|
G|----7h8-5h7-7h8p7-5h7--|----7h8-9h11-11h13-----------------|
D|-0-0---0---0-----------|-0-0---0----0-----0----------------|
A|-----------------------|-----------------------------------|
E|-----------------------|-----------------------------------|
B|-----------------------|-----------------------------------|

Main Riff /w WAH
E|------------------------|---------------------------|
B|------------------------|---------------------------|
G|-7-7--7h8-5h7-7h8p7-5h7-|-7-7--7h8-5h7-3h5p3-2p0----|
D|-7-7--------0-----------|-7-7-----0---0-------------|
A|-5-5--------------------|-5-5-----------------------|
E|------------------------|---------------------------|
B|------------------------|---------------------------|

E|------------------------|--------------------------------|
B|------------------------|---------------------11h13\\\---|
G|-7-7--7h8-5h7-7h8p7-5h7-|-7-7--7h8-9h11-11h13------------|
D|-7-7-----0---0----------|-7-7-----0----0-----0-----------|
A|-5-5--------------------|-5-5----------------------------|
E|------------------------|--------------------------------|
B|------------------------|--------------------------------|

E|-------------------------------------------12-----|
B|-//12-12-11-10-10-9-7---//12-12-11-10-10-12-------|
G|----------------------8---------------------------|
D|--------------------------------------------------|
A|--------------------------------------------------|
E|--------------------------------------------------|
B|--------------------------------------------------|

E|---------------------------------------|
B|-//12-12-11-10-10-9-7-----7-7-9*~~~----|
G|----------------------8----8-----------|
D|---------------------------------------|
A|---------------------------------------|
E|---------------------------------------|
B|---------------------------------------|

E|----------------------------------------------------------------------------|
B|----------------------------------------------------------------------------|
G|----------------------------------------------------------------------------|
D|--------------------------5h6p5-3h5---------------------------------5-------|
A|-55---55--55---55-5--55-5-5h6p5-3h5-55---55--55--55---55-5--55-5-5h7-h7p5p0-|
E|-55---55--55---55-5--55-5-5h6p5-3h5-55---55--55--55---55-5--55-5------------|
B|-33---33--33---33-3--33-3-----------33---33--33--33---33-3--33-3------------|


Sorry this is all i have so far, im still working on the rest... slowly

aim - Rhoadsrules19
            
Submit corrections


        Home lessons Hard to play? Try these video lessons and learn fast Home lessons
        
↑ Back to top | Tablatures and chords for acoustic guitar and electric guitar, ukulele, drums are parodies/interpretations of the original songs. You may use it for private study, scholarship, research or language learning purposes only