» » »

Dream Theater - Heavens Cove Tabs

Artists:  A B C D E F G H I J K L M N O P Q R S T U V W X Y Z # 

Heavens Cove Tabs

(ver. 2) Click to play this song!
Dream Theater
 Rating:
4.3/5 (16 votes)

 Heavens Cove  lessons Tabs too difficult? Try these video lessons and learn fast
 
                
e|---------0-------0-------0----------|----------0------------------0------------|
B|-------0-------0-------0--------0---|--------0---0--------------0---0----------|
G|-----0-------0-------0--------0-----|-----11-------11----11---5-------5---5----|
D|---2-------4-------5-------10-----9-|-8----------------8----7-----------7------|
A|------------------------------------|------------------------------------------|
E|------------------------------------|------------------------------------------|

e|---------0--------0--------0-----------|---------0-----------------0-----------|
B|-------0--------0--------0--------0----|-------0---0-------------0---0---------|
G|-----0--------0--------0--------0------|----14-------14-------11-------11----11|
D|---9-------11-------13-------16-----14-|-11-------------11-10-------------10---|
A|---------------------------------------|---------------------------------------|
E|---------------------------------------|---------------------------------------|

e|----------0--------0--------0------0---|-------0---------------0------------|
B|--------0--------0--------0------------|-----0---0-----------0---0----------|
G|-----10-------10-------10-------5------|---5-------5---5---5-------5---5----|
D|---7--------9--------6--------7-------5|-4-----------4---3-----------3------|
A|---------------------------------------|------------------------------------|
E|---------------------------------------|------------------------------------|

e|-----0---------0----------0----------0-------|---------0---------------0-----------|
B|-------0---------0----------0----------0-----|-------0---0-----------0---0---------|
G|---------0---------0----------0--------------|-----0-------0-------2---------------|
D|--2------------------------------------------|---2-----------2---2-----------------|
A|------------5-----------4---------3--------2-|-1---------------0-------------------|
E|---------------------------------------------|------------------------------3---2--|
                                              X2
e|----------0-----------------0-----------------|---------------0-----------------|
B|------------0-----------------0---------------|-----------------0---------------|
G|-------0------0----------0------0-------------|------------0------0-------------|
D|-----2----------2------2----------2-----------|----------2----------2-----------|
A|---2-----------------2------------------------|--------2------------------------|
E|-0-----------------0--------------------------|------0-----------------0--------|            
Submit corrections


        Heavens Cove  lessons Hard to play? Try these video lessons and learn fast Heavens Cove  lessons
        
↑ Back to top | Tablatures and chords for acoustic guitar and electric guitar, ukulele, drums are parodies/interpretations of the original songs. You may use it for private study, scholarship, research or language learning purposes only