» » »

Dream Theater - Dance Of Eternity Tabs

Artists:  A B C D E F G H I J K L M N O P Q R S T U V W X Y Z # 

Dance Of Eternity Tabs

(ver. 2) Click to play this song!
Dream Theater
 Rating:
4/5 (4 votes)

 Dance Of Eternity lessons Tabs too difficult? Try these video lessons and learn fast
 
                "(1)
Scene Seven: I. The dance of eternity

 
 
    Bkwd.tape effect              Bass
E||-----|----|----|----|----|----|----|----|----|----|
B||-----|----|----|----|----|----|----|----|----|----|
G||4----|----|----|----|----|----|----|----|----|----|
D||4----|----|----|----|----|----|----|----|----|----|
A||-----|----|----|----|----|----|----|----|----|----|
E||-----|----|----|----|----|----|----|----|----|----|
B||-----|----|----|----|----|----|----|----|----|----|
 
 
 
 
   D5
   Gtr.1(Elec.gtr.)
   P.M._ _ _ _ _ _ _ _ _ _ _ _ _ _ _ _ _ _ _ _ _ _ _ _ _ _ _
   __3__              __3__      __3__              __3__
E|-----------------------------|-----------------------------|
B|-----------------------------|-----------------------------|
G|-----------------------------|-----------------------------|
D|-0-0-0-0----0----0--0-0-0-0--|-0-0-0-0----0----0--0-0-0-0--|
A|-----------------------------|-----------------------------|
E|-----------------------------|-----------------------------|
B|-----------------------------|-----------------------------|
 
 
 
 
 
   Gtr.1
   _ _ _ _ _ _ _ _ _ _ _ _ _ _ _ _ _ _ _ _ _ _ _ _ _ _ _ _ _ _ _ _ _
   __3__              __3__      __3__      __3__ __3__    __3__
E|-----------------------------|------------------------------------|
B|-----------------------------|------------------------------------|
G|-----------------------------|------------------------------------|
D|-0-0-0-0----0----0--0-0-0-0--|-0-0-0-0----0-0-0-0-0-0-0--0-0-0-0--|
A|-----------------------------|------------------------------------|
E|-----------------------------|------------------------------------|
B|-----------------------------|------------------------------------|
 
 
 
 
   G5         Ab5       G5         F5      E5             C5     F#5
   Gtr.1
E|-3-----------------|--3---------------|---------------|---------------|
B|-3-----------------|--3---------------|---------------|---------------|
G|-0-----------------|7-0---------------|3--------------|---------------|
D|-0----------6------|8-0----------3----|4-2------------|--------4------|
A|------------6------|-------------3----|--2------------|-3------4------|
E|-3----------4------|--3----------1----|--0------------|-3------2------|
B|-------------------|------------------|---------------|-1-------------|
 
 
 
 
    G5         Ab5       G5         F5      E5             C5     Eb5
    Gtr.1
E|--3-----------------|--3---------------|---------------|---------------|
B|--3-----------------|--3---------------|---------------|---------------|
G|4-0-----------------|7-0---------------|3--------------|---------------|
D|4-0----------6------|8-0----------3----|4-2------------|---------------|
A|-------------6------|-------------3----|--2------------|-3------6------|
E|--3----------4------|--3----------1----|--0------------|-3------6------|
B|--------------------|------------------|---------------|-1------4------|
 
 
 
 
    N.C.
    Gtr.1
    w/slight P.M. throughout
E|--------------------------|------------------------|
B|--------------------------|------------------------|
G|4-------------------------|7-----------------------|
D|4-------5-----3--6--5-----|8------------3-5--------|
A|-----5-----5-----------6--|--5-----5--6------3-----|
E|--3-----------------------|-----3---------------1--|
B|--------------------------|------------------------|
 
 
 
 
 
   Gtr.1
E|--------------------------|-----------------|
B|--------------------------|-----------------|
G|4----------------4--5-----|5----------------|
D|4-------2--3--2-----------|8-5--------6-----|
A|-----2-----------------3--|-----4-----------|
E|--0-----------------------|--------2-----4--|
B|--------------------------|-----------------|
 
 
 
 
 
    Gtr.1
E|--------------------------|------------------------|
B|--------------------------|------------------------|
G|4-------------------------|7-----------------------|
D|4-------5-----3--6--5-----|8------------3-5--------|
A|-----5-----5-----------6--|--5-----5--6------3-----|
E|--3-----------------------|-----3---------------1--|
B|--------------------------|------------------------|
 
 
 
 
 
   Gtr.1
                         __3__
E|-----------------------------|-----------------|
B|-----------------------------|-----------------|
G|4----------------4--5--------|5----------------|
D|4-------2--3--2--------------|8-5--------------|
A|-----2-----------------3-5-6-|-----6-----------|
E|--0--------------------------|-----------6--4--|
B|-----------------------------|--------4--------|
 
 
 
 
 
   Gtr.1
E|------------|-----------------|---------------|-----------------|
B|------------|-----------------|---------------|-----------------|
G|3-----------|-7---------------|2--------------|-7---------------|
D|8-----------|16---------3^5-6-|4--------------|16---------------|
A|------------|-------3^5-------|---------------|---5-3-----------|
E|--3--4-3--4-|---3^4-----------|--3--4-3--4-3--|-------4-3-------|
B|------------|-----------------|---------------|-----------6-4-3-|
 
 
 
 
 
   Gtr.1
E|------------------|-----------------|----------------|--------------|
B|------------------|-----------------|----------------|--------------|
G|5-----------------|-7---------------|2---------------|3-------------|
D|8-----------------|16---------3^5-6-|4---------------|8-------------|
A|------------------|-------3^5-------|----------------|--5-3---------|
E|--3--4-3--4-3--4--|---3^4-----------|--3--4-3--4-3^4-|------4-3-----|
B|------------------|-----------------|----------------|----------6-4-|
 
 
 
 
    D5         Eb5       D5         C5      B5             G5     C#5
    Gtr.1
E|--------------------|------------------|---------------|-3-------------|
B|--------------------|------------------|---------------|-3-------------|
G|4-------------------|7-----------------|3--------------|-0-------------|
D|4-------------------|8-----------------|4--------------|-0-------------|
A|--5----------6------|--5----------3----|--2------------|--------4------|
E|--5----------6------|--5----------3----|--2------------|-3------4------|
B|--3----------4------|--3----------1----|--0------------|--------2------|
 
 
 
 
    D5         Eb5       D5         C5      Ab5         G5
    Gtr.1
E|--------------------|------------------|-----------|-------------|
B|--------------------|------------------|-----------|-------------|
G|4-------------------|7-----------------|4----------|5------------|
D|4-------------------|8-----------------|4-6--------|4-5----------|
A|--5----------6------|--5----------3----|--6--------|--5----------|
E|--5----------6------|--5----------3----|--4--------|--3----------|
B|--3----------4------|--3----------1----|-----------|-------------|
 
 
 
 
 
   Gtr.1
E|------------------|-----------------|---------------|-----------------|
B|------------------|-----------------|---------------|-----------------|
G|5-----------------|-7---------------|2--------------|-7---------------|
D|8-----------------|16---------3^5-6-|4--------------|16---------------|
A|------------------|-------3^5-------|---------------|---5-3-----------|
E|--3--4-3--4-3--4--|---3^4-----------|--3--4-3--4-3--|-------4-3-------|
B|------------------|-----------------|---------------|-----------6-4-3-|
 
 
 
 
                                   Bb5    Ab5    D5      E5
   Gtr.1
E|------------|-----------------|---------------------|---------|--------|
B|------------|-----------------|---------------------|---------|--------|
G|3-----------|-7---------------|4--------------------|3--------|--------|
D|8-----------|16---------3^5-6-|4-8------6-----------|4--------|--------|
A|------------|-------3^5-------|--8------6------5----|--7------|-7------|
E|--3--4-3--4-|---3^4-----------|--6------4------5----|--7------|-7------|
B|------------|-----------------|----------------3----|--5------|-5------|
 
 
 
 
   N.C.
   Gtr.1
E|--------------------------------|------------------------|
B|--------------------------------|------------------------|
G|4-------------------------------|3-------------7-3-------|
D|4-------4-4-4-------4-4-4----4--|4-5---------6-----4-----|
A|--------------------------4-----|-----3----5---------5---|
E|--2-2-2-------2-2-2-------------|--------4-------------6-|
B|--------------------------------|------------------------|
 
 
 
 
 
   Gtr.1
E|--------------------------------|------------------------|
B|--------------------------------|------------------------|
G|4-------------------------------|3-------7-----3---------|
D|4-------4-4-4-------4-4-4----4--|4-5-------6-----4-------|
A|--------------------------4-----|-----3------5-----5---4-|
E|--2-2-2-------2-2-2-------------|--------------------3---|
B|--------------------------------|------------------------|
 
 
 
 
 
   Gtr.1
E|--------------------------------|------------------------|
B|--------------------------------|------------------------|
G|4-------------------------------|3-------------7-9-------|
D|4-------4-4-4-------4-4-4----4--|4-5---------8-----6-----|
A|--------------------------4-----|-----3----9---------5---|
E|--2-2-2-------2-2-2-------------|--------6-------------4-|
B|--------------------------------|------------------------|
 
 
 
 
    
   Gtr.1
                                           P.M._ _ _ _ _ _ _ _ _ _ _ _
                                           __3__ __3__    __3__ __3__
E|--------------------------------|-----------------------------------|
B|--------------------------------|-----------------------------------|
G|4-------------------------------|7----------------------------------|
D|4-------4-4-4-------4-4-4----4--|8-5--------------------------------|
A|--------------------------4-----|-----3-----------------------------|
E|--2-2-2-------2-2-2-------------|--------5-5-4-3-3-2-1--1-----------|
B|--------------------------------|-------------------------5-4-3-3-2-|
 
 
 
 
 
   Gtr.1
    _ _ _ _ _ _ _ _ _ _ _ _ _ _ _ _ _ _ _ _ _ _ _ _ _ _ _ _ _ _ _ _ _ _ _ _ _ _ _ _ _
E|--------------------------------------|---------------------------------------------|
B|--------------------------------------|---------------------------------------------|
G|5-------------------------------------|6--------------------------------------------|
D|4-------------------------------------|4--------------------------------------------|
A|--------------------------------------|---------------------------------------------|
E|--------------------------------------|---------------------------------------------|
B|--0-0-0-0--0-0-0-0--0-0-0-0--0-0-0-0--|--0-0-0-0--0-0-0-0--0-0-0-0--0-0-0-0--0-0-0--|
 
 
 
 
 
   Gtr.1
    _ _ _ _ _ _ _ _ _ _ _ _ _ _ _ _ _ _ _ _ _ _ _ _ _ _ _ _ _ _ _ _ _ _ _ _ _ _ _ _ _
E|--------------------------------------|---------------------------------------------|
B|--------------------------------------|---------------------------------------------|
G|5-------------------------------------|6--------------------------------------------|
D|4-------------------------------------|4--------------------------------------------|
A|--------------------------------------|---------------------------------------------|
E|--------------------------------------|---------------------------------------------|
B|--0-0-0-0--0-0-0-0--0-0-0-0--0-0-0-0--|--0-0-0-0--0-0-0-0--0-0-0-0--0-0-0-0--0-0-0--|
 
 
 
 
 
   Gtr.1
    _ _ _ _ _ _ _ _ _ _ _ _ _ _ _ _ _ _ _ _ _ _ _ _ _ _ _ _ _ _ _ _ _ _ _ _ _ _ _ _ _
E|--------------------------------------|---------------------------------------------|
B|--------------------------------------|---------------------------------------------|
G|5-------------------------------------|6--------------------------------------------|
D|4-------------------------------------|4--------------------------------------------|
A|--------------------------------------|---------------------------------------------|
E|--7-7-7-7--7-7-7-7--7-7-7-7--7-7-7-7--|--7-7-7-7--7-7-7-7--7-7-7-7--7-7-7-7--7-7-7--|
B|--0-0-0-0--0-0-0-0--0-0-0-0--0-0-0-0--|--0-0-0-0--0-0-0-0--0-0-0-0--0-0-0-0--0-0-0--|
 
 
 
 
 
   Gtr.1
    _ _ _ _ _ _ _ _ _ _ _ _ _ _ _ _ _ _ _ _ _ _ _ _ _ _ _ _ _ _ _ _ _
    __3__    __3__    __3__    __3__       __3__    __3__    __3__
E|--------------------------------------|-----------------------------|
B|--------------------------------------|-----------------------------|
G|4-------------------------------------|3----------------------------|
D|4-------------------------------------|4----------------------------|
A|--------------------------------------|-----------------------------|
E|--7-7-7-7--7-7-7-7--7-7-7-7--7-7-7-7--|--7-7-7-7--7-7-7-7--7-7-7-7--|
B|--0-0-0-0--0-0-0-0--0-0-0-0--0-0-0-0--|--0-0-0-0--0-0-0-0--0-0-0-0--|
 
 
 
 
    N.C.
    Gtr.1
E|---------------------------12-13-14-|
B|------------------12-13-15----------|
G|3---------9-11-12-------------------|
D|8-9-10-12---------------------------|
A|------------------------------------|
E|------------------------------------|
B|------------------------------------|
 
 
 
 
     Em                     F#          Am    
     Gtr.1
E|--15^12--------12^7------14^9--------12^8-------|
B|--------12----------8---------11----------10----|
G|5----------12---------9----------11----------9--|
D|4-----------------------------------------------|
A|------------------------------------------------|
E|------------------------------------------------|
B|------------------------------------------------|
 
 
 
 
     Em                F#                Am    
     Gtr.1
E|--12^7------7^3------9^6------6^2------8^5----|
B|-------8--------5--------7--------2--------5--|
G|6--------9--------4--------6--------3---------|
D|4---------------------------------------------|
A|----------------------------------------------|
E|----------------------------------------------|
B|----------------------------------------------|
 
 
 
 
     Em                     F#          Am    
     Gtr.1
E|--15^12--------12^7------14^9--------12^8-------|
B|--------12----------8---------11----------10----|
G|5----------12---------9----------11----------9--|
D|4-----------------------------------------------|
A|------------------------------------------------|
E|------------------------------------------------|
B|------------------------------------------------|
 
 
 
 
     Em                F#                Am    
     Gtr.1
E|--12^7------7^3------9^6------6^2------8^5----|
B|-------8--------5--------7--------2--------5--|
G|6--------9--------4--------6--------3---------|
D|4---------------------------------------------|
A|----------------------------------------------|
E|----------------------------------------------|
B|----------------------------------------------|
 
 
 
 
     Em                                 C7                 B7
     Gtr.1
E|--12^7-0-11^7-0--10^9-0-8^7-0-6^5---|-----------7-14^15-12----12-------12-----|
B|----------------------------------7-|-8-----7^8------------11----11^10----8^7-|
G|4-----------------------------------|---8^9-----------------------------------|
D|4-----------------------------------|-----------------------------------------|
A|------------------------------------|-----------------------------------------|
E|------------------------------------|-----------------------------------------|
B|------------------------------------|-----------------------------------------|
 
 
 
 
    Em                                 Edim7
    Gtr.1
E|-12^7-0-11^7-0--10^9-0-8^7-0-6^5---|---------------------------------|
B|---------------------------------7-|-8-------5-----------------------|
G|-----------------------------------|---5-6-8-------5-6-------3-------|
D|-----------------------------------|-----------7-8-----4-5-7---7-5-4-|
A|-----------------------------------|---------------------------------|
E|-----------------------------------|---------------------------------|
B|-----------------------------------|---------------------------------|
 
 
 
 
   Em                               C7              B7
   Gtr.1
   P.M._ _ _ _ _ _ _ _ _ _ _ _ _ _ _ _ _ _ _ _ _ _ _ _ _ _ _ _ _ _ _
E|--------------------------------|---------------------------------|
B|--------------------------------|---------------------------------|
G|--------------------------------|---------------------------------|
D|--------------------------------|---------------------------------|
A|-7-----6------5^4---3^2---1^0---|-----------------2-3-4-5-6---6-9-|
E|---7-0---7-0------0-----0-----2-|-3^2---2-----2-3-----------7-----|
B|--------------------------------|-----5---4-5---------------------|
 
 
 
 
   Em                               C7         B7
   Gtr.1
   _ _ _ _ _ _ _ _ _ _ _ _ _ _ _ _                  ______6_____  _______7_______
                                                    A_ _ _ _ _ _  V_ _ _ _ _ _ _
E|--------------------------------|---------------------------14-19^14-----------|
B|--------------------------------|-------------------------16--------16---------|
G|--------------------------------|-----------------------16------------16-------|
D|--------------------------------|---------------------16----------------16-----|
A|-7-----6------5^4---3^2---1^0---|-3--3--3-3--2---14-18--------------------18-14|
E|---7-0---7-0------0-----0-----2-|-3--3--3-3--2---------------------------------|
B|--------------------------------|-1--1--1-1--0---------------------------------|
 
 
 
 
   E5                                            C#5       C5      B5
   Gtr.1
   P.M. throughout
E|----------------------|----------------------|----------------------|
B|----------------------|----------------------|----------------------|
G|----------------------|----------------------|----------------------|
D|----------------------|----------------------|----------------------|
A|-7----7------------7--|(7)-7----7------------|-4----4----3--3-------|
E|-7----7------------7--|(7)-7----7------------|-4----4----3--3-------|
B|-5----5----0----0--5--|(5)-5----5--0----0----|-2----2----1--1----0--|
 
 
 
 
              D5   D#5    E5
   Gtr.1
E|----------------------|----------------------|----------------------|
B|----------------------|----------------------|----------------------|
G|----------------------|----------------------|----------------------|
D|----------------------|----------------------|----------------------|
A|------------5----6----|-7----7------------7--|(7)-7----7------------|
E|------------5----6----|-7----7------------7--|(7)-7----7------------|
B|(0)-0--0----3----4----|-5----5----0----0--5--|(5)-5----5--0----0----|
 
 
 
 
   F#5               B5          G5   F#5  F5     E5         Eb5
   Gtr.1
E|----------------------|-----------------------|-----------------------|
B|----------------------|-----------------------|-----------------------|
G|----------------------|-----------------------|-----------------------|
D|----------------------|-----------------------|-----------------------|
A|-9----9----9--9-------|-------10----9----8----|-----------------------|
E|-9----9----9--9-------|-------10----9----8----|-7----------6----------|
B|-7----7----7--7----0--|(0)-0---8----7----6----|-5----0--0--4----0--0--|
 
 
 
 
   D5      C#5            C5                B5              D5   Eb5
   Gtr.1
E|----------------------|----------------------|----------------------|
B|----------------------|----------------------|----------------------|
G|----------------------|----------------------|----------------------|
D|----------------------|----------------------|----------------------|
A|----------------------|-3----3----3--3-------|------------5----6----|
E|-5-------4----4-------|-3----3----3--3-------|------------5----6----|
B|-3----0--2----2----0--|-1----1----1--1----0--|(0)-0--0----3----4----|
 
 
 
 
   E5         F#5           G5       G#5               A5
   Gtr.1
E|-----------------------|------------------------|-----------------------|
B|-----------------------|------------------------|-----------------------|
G|-----------------------|------------------------|-----------------------|
D|-----------------------|------------------------|-----------------------|
A|-----------------------|------------------------|-----------------------|
E|-7----------9----------|-10-------11----11------|---12------12------12--|
B|-5----0--0--7----0--0--|--8----0---9-----9------|---10------10------10--|
 
 
 
 
                          B5
   Gtr.1
E|---------------------|-------------------|--------------------|
B|---------------------|-------------------|--------------------|
G|---------------------|-------------------|--------------------|
D|---------------------|-------------------|--------------------|
A|---------------------|-------------------|--------------------|
E|(12)-12------12------|-14--\-------------|-12----\---7----\---|
B|(10)-10------10------|-12--\-------------|--------------------|
 
 
 
 
   E5
   Gtr.1
E|----------------------------|-----------------------------|
B|----------------------------|-----------------------------|
G|----------------------------|-----------------------------|
D|----------------------------|-----------------------------|
A|-7--------------------------|(7)--------------------------|
E|-7--------------------------|(7)--------------------------|
B|-5--------------------------|(5)--------------------------|
 | Gtr.2(Elec.gtr.)
E|----------------------------|------------------12---------|
B|----------------------------|-----------------------------|
G|--------------9^^10^^9------|-9---------9^^10------9^^10--|
D|-------9^^10------------10--|----9^^10--------------------|
A|-7^^8-----------------------|-----------------------------|
E|----------------------------|-----------------------------|
B|----------------------------|-----------------------------|
 
 
 
 
   D5
   Gtr.1
E|---------------------------|---------------------------|
B|---------------------------|---------------------------|
G|---------------------------|---------------------------|
D|---------------------------|---------------------------|
A|-5-------------------------|(5)------------------------|
E|-5-------------------------|(5)------------------------|
B|-3-------------------------|(3)------------------------|
 | Gtr.2
E|10---------7^^8--10--8--7--|-8---------7---------------|
B|---------------------------|---------------------------|
G|----9^^10------------------|----10--9-----9--7---------|
D|---------------------------|--------------------10--9--|
A|---------------------------|---------------------------|
E|---------------------------|---------------------------|
B|---------------------------|---------------------------|
 
 
 
 
   A5
   Gtr.1
E|----------------------------|------------------------------|
B|----------------------------|------------------------------|
G|----------------------------|------------------------------|
D|-7--------------------------|(7)---------------------------|
A|-7--------------------------|(7)---------------------------|
E|-5--------------------------|(5)---------------------------|
B|----------------------------|------------------------------|
 | Gtr.2
E|----------------------------|--------------------------15/-|
B|----------------------------|------------------12^^13------|
G|--------------9^^10^^9------|-9---------9^^10--------------|
D|-------9^^10------------10--|----9^^10---------------------|
A|-7^^8-----------------------|------------------------------|
E|----------------------------|------------------------------|
B|----------------------------|------------------------------|
 
 
 
 
   F5
   Gtr.1
E|--------------------------------|------------------------------|
B|--------------------------------|------------------------------|
G|--------------------------------|------------------------------|
D|-3------------------------------|(3)---------------------------|
A|-3------------------------------|(3)---------------------------|
E|-1------------------------------|(1)---------------------------|
B|--------------------------------|------------------------------|
 | Gtr.2
E|17----------15------------------|------------------------------|
B|----15--13------13--12------15--|13----------------------------|
G|------------------------14------|----12-\10--9------12---------|
D|--------------------------------|---------------12------10--9--|
A|--------------------------------|------------------------------|
E|--------------------------------|------------------------------|
B|--------------------------------|------------------------------|
 
 
 
 
   E5
   Gtr.1
E|----------------------------|-----------------------------|
B|----------------------------|-----------------------------|
G|----------------------------|-----------------------------|
D|----------------------------|-----------------------------|
A|-7--------------------------|(7)--------------------------|
E|-7--------------------------|(7)--------------------------|
B|-5--------------------------|(5)--------------------------|
 | Gtr.2
E|----------------------------|------------------12---------|
B|----------------------------|-----------------------------|
G|--------------9^^10^^9------|-9---------9^^10------9^^10--|
D|-------9^^10------------10--|----9^^10--------------------|
A|-7^^8-----------------------|-----------------------------|
E|----------------------------|-----------------------------|
B|----------------------------|-----------------------------|
 
 
 
 
   D5
   Gtr.1
E|---------------------------|---------------------------|
B|---------------------------|---------------------------|
G|---------------------------|---------------------------|
D|---------------------------|---------------------------|
A|-5-------------------------|(5)------------------------|
E|-5-------------------------|(5)------------------------|
B|-3-------------------------|(3)------------------------|
 | Gtr.2
E|10---------7^^8--10--8--7--|-8---------7---------------|
B|---------------------------|---------------------------|
G|----9^^10------------------|----10--9-----9--7---------|
D|---------------------------|--------------------10--9--|
A|---------------------------|---------------------------|
E|---------------------------|---------------------------|
B|---------------------------|---------------------------|
 
 
 
 
   A5
   Gtr.1
E|----------------------------|------------------------------|
B|----------------------------|------------------------------|
G|----------------------------|------------------------------|
D|-7--------------------------|(7)---------------------------|
A|-7--------------------------|(7)---------------------------|
E|-5--------------------------|(5)---------------------------|
B|----------------------------|------------------------------|
 | Gtr.2
E|----------------------------|--------------------------15--|
B|----------------------------|------------------12^^13------|
G|--------------9^^10^^9------|-9---------9^^10--------------|
D|-------9^^10------------10--|----9^^10---------------------|
A|-7^^8-----------------------|------------------------------|
E|----------------------------|------------------------------|
B|----------------------------|------------------------------|
 
 
 
 
   F5
   Gtr.1
E|------------------------------------|------------------------------------|
B|------------------------------------|------------------------------------|
G|------------------------------------|------------------------------------|
D|-3----------------------------------|(3)---------------------------------|
A|-3----------------------------------|(3)---------------------------------|
E|-1----------------------------------|(1)---------------------------------|
B|------------------------------------|------------------------------------|
 | Gtr.2
 | ___3___  ___3___  ___3___  ___3___   ___3___  ___3___  ___3___  ___3___
E|17^12----17----12-19^12----19----12-|20^15----20----15-22^15----22----15-|
B|------15----15----------15----15----|------18----18----------18----18----|
G|------------------------------------|------------------------------------|
D|------------------------------------|------------------------------------|
A|------------------------------------|------------------------------------|
E|------------------------------------|------------------------------------|
B|------------------------------------|------------------------------------|
 
 
 
 
   E5
   Gtr.1
E|------------------------------------|------------------------------------|
B|------------------------------------|------------------------------------|
G|------------------------------------|------------------------------------|
D|------------------------------------|------------------------------------|
A|-7----------------------------------|(7)---------------------------------|
E|-7----------------------------------|(7)---------------------------------|
B|-5----------------------------------|(5)---------------------------------|
 | Gtr.2
 | ___3___  ___3___  ___3___  ___3___   ___3___  ___3___  ___3___  ___3___
E|24^19----24----19-24^19----------19-|24^19----24----19-24^19----------19-|
B|------22----22----------22----22----|------22----22----------22----22----|
G|---------------------------21-------|---------------------------21-------|
D|------------------------------------|------------------------------------|
A|------------------------------------|------------------------------------|
E|------------------------------------|------------------------------------|
B|------------------------------------|------------------------------------|
 
 
 
 
   F5                              G5                            A5
   Gtr.1
E|-------------------------------|-3---------------------------|-----------|
B|-------------------------------|-3---------------------------|-----------|
G|-------------------------------|-0---------------------------|-----------|
D|-3-----------------------------|-0---------------------------|-----------|
A|-3-----------------------------|-----------------------------|-----------|
E|-1-----------------------------|-3---------------------------|-----------|
B|-------------------------------|-----------------------------|-----------|
 | Gtr.2
 | __3__  ___3___  __3__  ___3___  __3__  __3__  ___3___ __3__
E|12^7----12----7-12^7---------7-|12^7-------------------------|-----------|
B|-----10----10--------10---10---|-----10---10-----------------|-----------|
G|------------------------9------|--------9----9----9------9---|-----------|
D|-------------------------------|---------------12---10-9---9-|-7----\----|
A|-------------------------------|-----------------------------|-7----\----|
E|-------------------------------|-----------------------------|-5----\----|
B|-------------------------------|-----------------------------|-----------|
 
 
 
 
 
   Gtr.1
E|-------------------|--------------------|------------------|-------------------|
B|-------------------|--------------------|------------------|-------------------|
G|-------------------|--------------------|------------------|-------------------|
D|-------------------|--------------------|------------------|-------------------|
A|-------------7--7--|(7)-7--7------------|-------------7----|(7)-------\--------|
E|-------------5--5--|(5)-5--5------------|-------------5----|(5)-------\--------|
B|-------------------|--------------------|------------------|-------------------|
 
 
 
 
 
   Gtr.1
E|-------------------|--------------------|-------------------|--------------------|
B|-------------------|--------------------|-------------------|--------------------|
G|-------------------|--------------------|-------------14----|(14)-------\--------|
D|-------------------|--------------------|-------------14----|(14)-------\--------|
A|-------------7--7--|(7)-7--7------------|-------------12----|(12)-------\--------|
E|-------------5--5--|(5)-5--5------------|-------------------|--------------------|
B|-------------------|--------------------|-------------------|--------------------|
 
 
 
 
 
   Gtr.1
E|---------------------|-----------------------|-------------------|--------------------|
B|---------------------|-----------------------|-------------------|--------------------|
G|-------------14--14--|(14)-14--14------------|-------------14----|(14)-------\--------|
D|-------------14--14--|(14)-14--14------------|-------------14----|(14)-------\--------|
A|-------------12--12--|(12)-12--12------------|-------------12----|(12)-------\--------|
E|---------------------|-----------------------|-------------------|--------------------|
B|---------------------|-----------------------|-------------------|--------------------|
 
 
 
 
 
   Gtr.1
E|---------------------|-----------------------|--------------------|
B|---------------------|-----------------------|--------------------|
G|-------------14--14--|(14)-14--14------------|--------------------|
D|-------------14--14--|(14)-14--14------------|--------------------|
A|-------------12--12--|(12)-12--12------------|--------------------|
E|---------------------|-----------------------|---------5----------|
B|---------------------|-----------------------|--------------8--6--|
 
 
 
 
   E5
   Gtr.1
E|-----------------------------|-----------------------------|
B|-----------------------------|-----------------------------|
G|-----------------------------|-----------------------------|
D|-----------------------------|-----------------------------|
A|-----------------------------|--------------5-7-5-7--------|
E|----5-7---------------5------|----7-8---------------5------|
B|-5-------8-5--6-8-6-5----8-6-|-5-------6-5-------------8-6-|
 
 
 
 
 
   Gtr.1
                                            ~~~~
E|----------------------------|------------------------------|
B|----------------------------|------------------------------|
G|----------------------------|------------------------------|
D|----------------------------|-----------------10-9-7-------|
A|----------------------------|------5-7--8-7-----------10-8-|
E|----5-7----------------5-7--|------------------------------|
B|-5-------8-5--6-8-6-5-------|-8-5--------------------------|
 
 
 
 
 
   Gtr.1
E|--------------------------------|-------------------------------|
B|--------------------------------|-------------------------------|
G|--------------------------------|---------------7-9-7-9---------|
D|----7-9-----------------7-------|----9-10---------------7-------|
A|-7-------10-7--8-10-8-7----10-8-|-7--------8-7-------------10-8-|
E|--------------------------------|-------------------------------|
B|--------------------------------|-------------------------------|
 
 
 
 
 
   Gtr.1
                                                 ~~~
E|------------------------------|------------------------|
B|------------------------------|------------------------|
G|------------------------------|3-------7-9--10-9-------|
D|----7-9------------------7-9--|4-----------------------|
A|-7-------10-7--8-10-8-7-------|--10-7------------------|
E|------------------------------|--------------------8-7-|
B|------------------------------|------------------------|
 
 
 
 
    Em
    Gtr.1
    w/slight P.M. throughout
E|----------------------------------|---------------------------------|
B|----------------------------------|---------------------------------|
G|4---------------------------------|---------------------------------|
D|4---------------------------------|---------------------------------|
A|----------------------------------|---------------------------------|
E|--5-0-3-1-0-0-5-7-0-3-0-0-1-3-1-0-|-5-0-3-1-0-0-5-7-0-3-0-0-1-3-1-0-|
B|----------------------------------|---------------------------------|
 
 
 
 
 
   Gtr.1
E|---------------------------------|---------------------------------|
B|---------------------------------|---------------------------------|
G|---------------------------------|---------------------------------|
D|---------------------------------|---------------------------------|
A|---------------------------------|---------------------------------|
E|-5-0-3-1-0-0-5-7-0-3-0-0-1-3-1-0-|-5-0-3-1-0-0-5-7-0-3-0-0-1-3-1-0-|
B|---------------------------------|---------------------------------|
 
 
 
 
 
   Gtr.1
E|---------------------------------|-------------------------------------|
B|---------------------------------|-------------------------------------|
G|---------------------------------|-------------------------------------|
D|---------------------------------|-------------------------------------|
A|---------------------------------|-------------------------------------|
E|-5-0-3-1-0-0-5-7-0-3-0-0-1-3-1-0-|-5-0-3-1-0-0-7-8-0-3-0-0-10-12-10-12-|
B|---------------------------------|-------------------------------------|
 
 
 
 
 
   Gtr.1
E|---------------------------------|-------------------------------------|
B|---------------------------------|-------------------------------------|
G|---------------------------------|-------------------------------------|
D|---------------------------------|-------------------------------------|
A|---------------------------------|---------------------------------8-7-|
E|-5-0-3-1-0-0-5-7-0-3-0-0-1-3-1-0-|-0-5-7-0-3-0-0-10-12-0-13-12-0-0-----|
B|---------------------------------|-------------------------------------|
 
 
 
 
   Dm              Am                Dm              Am
   Gtr.1
E|---------------------------------|---------------------------------|
B|---------------------------------|---------------------------------|
G|---------------------------------|---------------------------------|
D|---------------------------------|---------------------------------|
A|-5-0-3-2-0-0-5-7-0-3-0-0-2-3-2-0-|-5-0-3-2-0-0-5-7-0-3-0-0-2-3-2-0-|
E|---------------------------------|---------------------------------|
B|---------------------------------|---------------------------------|
 
 
 
 
   Dm              Am                Dm              Am
   Gtr.1
E|---------------------------------|---------------------------------|
B|---------------------------------|---------------------------------|
G|---------------------------------|---------------------------------|
D|---------------------------------|---------------------------------|
A|-5-0-3-2-0-0-5-7-0-3-0-0-2-3-2-0-|-5-0-3-2-0-0-5-7-0-3-0-0-2-3-2-0-|
E|---------------------------------|---------------------------------|
B|---------------------------------|---------------------------------|
 
 
 
 
   Dm              Am                Dm              Am
   Gtr.1
E|---------------------------------|---------------------------------|
B|---------------------------------|---------------------------------|
G|---------------------------------|---------------------------------|
D|---------------------------------|---------------7-5---5-----------|
A|-5-0-3-2-0-0-5-7-0-3-0-0-2-3-2-0-|-5-0-3-2-0-0-5-----7---7-5-7-5---|
E|---------------------------------|-------------------------------8-|
B|---------------------------------|---------------------------------|
 
 
 
 
   Dm              Am                Dm              Am
   Gtr.1
                                                   >  >  >
E|---------------------------------|------------------------------|
B|---------------------------------|------------------------------|
G|---------------------------------|------------------------------|
D|---------------------------------|---------------7--5-----------|
A|-5-0-3-2-0-0-5-7-0-3-0-0-2-3-2-0-|-5-0-3-2-0-0-5-------7--3-2-0-|
E|---------------------------------|------------------------------|
B|---------------------------------|------------------------------|
 
 
 
 
   Dm              Am                Dm              Am
   Gtr.1
   w/o P.M.
E|---------------------------------|---------------------------------|
B|---------------------------------|---------------------------------|
G|---------------------------------|---------------------------------|
D|---------------------------------|---------------------------------|
A|-5-0-3-2-0-0-5-7-0-3-0-0-2-3-2-0-|-7-0-5-3-0-0-7-8-0-5-0-0-3-5-3-0-|
E|---------------------------------|---------------------------------|
B|---------------------------------|---------------------------------|
 
 
 
 
   Dm               Am                Dm                Am
   Gtr.1
E|----------------------------------|-----------------------------------|
B|----------------------------------|-----------------------------------|
G|----------------------------------|-----------------------------------|
D|----------------------------------|-----------------------------------|
A|-8-0-7-5-0-0-8-10-0-7-0-0-5-7-5-0-|10-0-8-7-0-0-10-12-0-8-0-0-7-8-7-0-|
E|----------------------------------|-----------------------------------|
B|----------------------------------|-----------------------------------|
 
 
 
 
 
   Gtr.1
E|--------------------------------|----------------------|------------------|
B|--------------------------------|----------------------|------------------|
G|3-------------------------------|2---------------------|3-----------------|
D|4-------------------------------|4---------------------|8-----------------|
A|--12-0-10-8-0-0-12-14-0-12-10-0-|--0-14-15-0-14-12-0-0-|--15-17-0-15-14-0-|
E|--------------------------------|----------------------|------------------|
B|--------------------------------|----------------------|------------------|
 
 
 
 
 
   Gtr.1
E|-----------------|-----------------|-----------------------|
B|-----------------|-----------------|-----------------------|
G|-----------------|-----------------|2----------------------|
D|-----------------|-----------------|4----------------------|
A|-0-17-19-0-17-15-|-0-19-20-0-19-17-|--0-20-22-0-20-19-0-22-|
E|-----------------|-----------------|-----------------------|
B|-----------------|-----------------|-----------------------|
 
 
 
 
                                        E
      Gtr.1
E|-----------------------------------|--------------------------------------|
B|-----------------------------------|--------------------------------------|
G|12---------------------------------|4-----------------------------10-9-10-|
D|-8---------------------------------|4-------------------10-9-9-10---------|
A|---24-0-22-24-0-22-24-0-22-24-0-22-|--------------8-7-8-------------------|
E|-----------------------------------|------8-7-7-8-------------------------|
B|-----------------------------------|--5-6---------------------------------|
 
 
 
 
                                       A5
     Gtr.1
                    tr~~~~~~~~~~~~~
E|--------------13-12(13)----------|-------------|-----------|
B|--13-12-12-13--------------------|-------------|-----------|
G|5--------------------------------|-5-----------|-----------|
D|4--------------------------------|16-7---7-----|-7---7-----|
A|---------------------------------|-----0---0-0-|---0---0-0-|
E|---------------------------------|-------------|-----------|
B|---------------------------------|-------------|-----------|
 
 
 
 
 
   Gtr.1
E|-------------|-------------|--------------------|
B|-------------|-------------|---10---10---10-----|
G|-7-----------|-5-----------|-7------------------|
D|16-7---7-----|16-7---7-----|16--7----7----7-----|
A|-----0---0-0-|-----0---0-0-|------0----0----0-0-|
E|-------------|-------------|--------------------|
B|-------------|-------------|--------------------|
 
 
 
 
 
   Gtr.1
E|---17---17---|17---17-----|---17---17---17-----|
B|---10---10---|10---10-----|---10---10---10-----|
G|-5-----------|------------|-7------------------|
D|16--7----7---|-7----7-----|16--7----7----7-----|
A|------0----0-|---0----0-0-|------0----0----0-0-|
E|-------------|------------|--------------------|
B|-------------|------------|--------------------|
 
 
 
 
    N.C.
    Gtr.1
E|---5-------------------------------------------------------|
B|------5--6--8--6--5----------------------------------------|
G|5--------------------7--5--7--4----------------------------|
D|4--------------------------------7-------5-----------------|
A|-----------------------------------7--8-----8-7--5-----5---|
E|----------------------------------------------------8----7-|
B|-----------------------------------------------------------|
 |  Gtr.2
E|--17-12-13-15-13-12----------------------------------------|
B|--------------------15-13-15-12----------------------------|
G|5-------------------------------14-9-10-12-10-9------------|
D|4-----------------------------------------------12-10-12-9-|
A|-----------------------------------------------------------|
E|-----------------------------------------------------------|
B|-----------------------------------------------------------|
 
 
 
 
     G5                               Ab5
     Gtr.1
E|--------------------------------------------------|
B|--------------------13-15-13----------------------|
G|4-------------12-13----------13-12-10-------------|
D|4-------10-12-------------------------12-10-------|
A|--10-11-------------------------------------13-11-|
E|--------------------------------------------------|
B|--------------------------------------------------|
 
 
 
 
     G5                               F5
     Gtr.1
E|-------------------------------------------------|
B|--------------------13-15-13---------------------|
G|7-------------12-13----------13-12-10------------|
D|8-------10-12-------------------------12-10------|
A|--10-11------------------------------------13-11-|
E|-------------------------------------------------|
B|-------------------------------------------------|
 
 
 
 
     E5                                   C5                F#5
     Gtr.1
                                                                  ___3___  ___3___
E|--------------------------------------|------------------------------------------|
B|--------------------13-15-13----------|------------------------------------------|
G|3-------------12-13----------13-12-10-|------------------------15-13-11----------|
D|4-------10-12-------------------------|14-12-------16-14-------------------------|
A|--10-11-------------------------------|------13-11-------15-13----------15-13-11-|
E|--------------------------------------|------------------------------------------|
B|--------------------------------------|------------------------------------------|
 
 
 
 
     G5                               Ab5
     Gtr.1
E|--------------------------------------------------|
B|--------------------13-15-13----------------------|
G|4-------------12-13----------13-12-10-------------|
D|4-------10-12-------------------------12-10-------|
A|--10-11-------------------------------------13-11-|
E|--------------------------------------------------|
B|--------------------------------------------------|
 
 
 
 
     G5                               F5
     Gtr.1
E|-------------------------------------------------|
B|--------------------13-15-13---------------------|
G|7-------------12-13----------13-12-10------------|
D|8-------10-12-------------------------12-10------|
A|--10-11------------------------------------13-11-|
E|-------------------------------------------------|
B|-------------------------------------------------|
 
 
 
 
      E5
      Gtr.1
                   ~~~   ~~~
E|---------------------------------------|---------------------------|
B|---------------------------------------|---------------------------|
G|15---------10----9--10-9---------------|9--------------------10-12-|
D|-8-------9----12----------12-10-9-10---|8------------9-11-13-------|
A|---10-12-----------------------------8-|--(8)-10-12----------------|
E|---------------------------------------|---------------------------|
B|---------------------------------------|---------------------------|
 
 
 
 
 
     Gtr.1
                  ~~~   ~~~
E|--------------------------------------|---15-13-11----------------------------------|
B|--------------------------------------|------------12-14-12-------------------------|
G|15--------10----9--10-9---------------|---------------------14-12-------15----------|
D|-8------9----12----------12-10-9-10---|---------------------------12-13----13-11----|
A|-----12-----------------------------8-|------------------------------------------11-|
E|--------------------------------------|---------------------------------------------|
B|--------------------------------------|---------------------------------------------|
 
 
 
 
 
   Gtr.1
                ~~~   ~~~
E|------------------------------------|---------------------------|
B|------------------------------------|---------------------------|
G|--------10----9--10-9---------------|9--------------------10-12-|
D|------9----12----------12-10-9-10---|8------------9-11-13-------|
A|---12-----------------------------8-|--(8)-10-12----------------|
E|-0----------------------------------|---------------------------|
B|------------------------------------|---------------------------|
 
 
 
 
 
     Gtr.1
                  ~~~   ~~~
E|--------------------------------------|---15-13-11----------------------------------|
B|--------------------------------------|------------12-14-12-------------------------|
G|15--------10----9--10-9---------------|---------------------14-12-------15----------|
D|-8------9----12----------12-10-9-10---|---------------------------12-13----13-11----|
A|-----12-----------------------------8-|------------------------------------------11-|
E|--------------------------------------|---------------------------------------------|
B|--------------------------------------|---------------------------------------------|
 
 
 
 
 
   Gtr.1
                  ~~~    ~~~    ~~~                        ~~~    ~~
E|---------------------------------------|--------------------------|
B|---------------------------------------|--------------------------|
G|---------------------------------------|9-------------------------|
D|---------------------------------------|8-------------------------|
A|---------18----17---------14-15--------|----------18----17--------|
E|-0-14-16----16-----18-19---------16-17-|----14-16----16-----18-19-|
B|---------------------------------------|--------------------------|
 
 
 
 
     Gtr.1
     ~~~~
E|--------------------------------------|
B|--------------------------------------|
G|11------------------------------------|
D|-8------------------14-15-17-18-14-15-|
A|--------14-15-16-17-------------------|
E|---(19)-------------------------------|
B|--------------------------------------|
 
 
 
 
 
     Gtr.1
                    ~~~    ~~~    ~~~                        ~~~    ~~
E|-----------------------------------------|--------------------------|
B|-----------------------------------------|--------------------------|
G|15---------------------------------------|9-------------------------|
D|-8---------------------------------------|8-------------------------|
A|-----------18----17---------14-15--------|----------18----17--------|
E|---0-14-16----16-----18-19---------16-17-|----14-16----16-----18-19-|
B|-----------------------------------------|--------------------------|
 
 
 
 
 
     Gtr.1
     ~~~~
E|--------------------------------------|
B|--------------------------------------|
G|11------------------------------------|
D|-8------------------14-15-17-18-14-15-|
A|--------14-15-16-17-------------------|
E|---(19)-------------------------------|
B|--------------------------------------|
 
 
 
 
    N.C.
    Gtr.1
E|-------------------------------------|-------------------------------------------------|
B|-------------------------------------|-------------------------------------------------|
G|3------------------------------------|4------------------------------------------------|
D|4------------------------------------|4------------------------------------------------|
A|----------18----17-------14-15-------|----------18----17-------14-15-------13-14-------|
E|--0-14-16----16----18-19-------16-17-|--0-14-16----16----18-19-------16-17-------15-16-|
B|-------------------------------------|-------------------------------------------------|
 
 
 
 
 
    Gtr.1
E|-------------------------------------|-------------------------------------------------|
B|-------------------------------------|-------------------------------------------------|
G|3------------------------------------|4------------------------------------------------|
D|4------------------------------------|4------------------------------------14-16-17-18-|
A|----------18----17-------14-15-------|----------18----17-------14-15-16-17-------------|
E|--0-14-16----16----18-19-------16-17-|--0-14-16----16----18-19-------------------------|
B|-------------------------------------|-------------------------------------------------|
 
 
 
 
 
    Gtr.1
E|-------------------------------------|-------------------------------|
B|-------------------------------------|-------------------------------|
G|3------------------------------------|5------------------------------|
D|4------------------------------------|8------------------------------|
A|----------18----17-------14-15-------|----------18----17-14-15-------|
E|--0-14-16----16----18-19-------16-17-|--0-14-16----16----------16-17-|
B|-------------------------------------|-------------------------------|
 
 
 
 
 
    Gtr.1
E|-------------------------------------|-------------------------------------------|
B|-------------------------------------|-------------------------------------------|
G|3------------------------------------|7------------------------------------------|
D|4------------------------------------|8------------------------------------------|
A|----------18----17-------14-15-------|----------18----17-14-15-------13-14-------|
E|--0-14-16----16----18-19-------16-17-|--0-14-16----16----------16-17-------15-16-|
B|-------------------------------------|-------------------------------------------|
 
 
 
 
 
      Gtr.1
E|-----------------|--------------|--------------|---------------------|
B|-----------------|--------------|--------------|---------------------|
G|-5---------------|--------------|--------------|-6-------------------|
D|16---------------|--------------|--------------|16-------------------|
A|-----------------|--------------|--------------|------------14-16-17-|
E|---19-16-18-16-0-|19-16-18-16-0-|19-16-18-16-0-|---15-16-18----------|
B|-----------------|--------------|--------------|---------------------|
 
 
 
 
 
    Gtr.1
    P.M._ _ _ _ _ _ _ _ _ _ _ _ _ _ _ _ _ _ _ _ _ _ _ _ _ _ _ _
E|--------------------------|----------------------------------|
B|--------------------------|----------------------------------|
G|3-------------------------|4---------------------------------|
D|4-------------------------|4---------------------------------|
A|--------6---5-----2-3-----|--------6---5-----2-3-----1-2-----|
E|--0-2-4---4---6-7-----4-5-|--0-2-4---4---6-7-----4-5-----3-4-|
B|--------------------------|----------------------------------|
 
 
 
 
 
    Gtr.1
    _ _ _ _ _ _ _ _ _ _ _ _ _ _ _ _ _ _ _ _ _ _ _ _ _ _ _ _ _ _
E|--------------------------|----------------------------------|
B|--------------------------|----------------------------------|
G|3-------------------------|4---------------------------------|
D|4-------------------------|4-------------------------2-4-5-6-|
A|--------6---5-----2-3-----|--------6---5-----2-3-4-5---------|
E|--0-2-4---4---6-7-----4-5-|--0-2-4---4---6-7-----------------|
B|--------------------------|----------------------------------|
 
 
 
 
 
    Gtr.1
    _ _ _ _ _ _ _ _ _ _ _ _ _ _ _ _ _ _ _ _ _ _ _ _
E|--------------------------|----------------------|
B|--------------------------|----------------------|
G|3-------------------------|5---------------------|
D|4-------------------------|8---------------------|
A|--------6---5-----2-3-----|--------6---5-2-3-----|
E|--0-2-4---4---6-7-----4-5-|--0-2-4---4-------4-5-|
B|--------------------------|----------------------|
 
 
 
 
 
    Gtr.1
    _ _ _ _ _ _ _ _ _ _ _ _ _ _ _ _ _ _ _ _ _ _ _ _ _ _ _ _
E|--------------------------|------------------------------|
B|--------------------------|------------------------------|
G|3-------------------------|7-----------------------------|
D|4-------------------------|8-----------------------------|
A|--------6---5-----2-3-----|--------6---5-2-3-----1-2-----|
E|--0-2-4---4---6-7-----4-5-|--0-2-4---4-------4-5-----3-4-|
B|--------------------------|------------------------------|
 
 
 
 
     E
     Gtr.1
E|-------------|-----------|-----------|---------------|
B|-------------|-----------|-----------|---------------|
G|-5-----------|-----------|-----------|-6-------------|
D|16-----------|-----------|-----------|16-------------|
A|-------------|-----------|-----------|---------2-4-5-|
E|---7-4-6-4-0-|-7-4-6-4-0-|-7-4-6-4-0-|---3-4-6-------|
B|-------------|-----------|-----------|---------------|
 
 
 
 
     
     Gtr.1
E|-------------|-----------|-----------|-----------|
B|-------------|-----------|-----------|-----------|
G|-5-----------|-----------|-----------|-----------|
D|16-----------|-----------|-----------|-------2-4-|
A|---7-4-6-4-0-|-7-4-6-4-0-|-7-4-6-4-0-|-3-4-6-----|
E|-------------|-----------|-----------|-----------|
B|-------------|-----------|-----------|-----------|
 
 
 
 
   C
   Gtr.1
E|-----------|-----------------|-------------|---------------|
B|-----------|-----------------|-------------|---------------|
G|-----------|-7---------------|-5-----------|-6-------2-3-5-|
D|-5-2-4-2---|16-5-2-4-2-4-2---|16-5-2-4-2---|16-2-4-5-------|
A|---------3-|---------------3-|-----------3-|---------------|
E|-----------|-----------------|-------------|---------------|
B|-----------|-----------------|-------------|---------------|
 
 
 
 
     Fm
     Gtr.1
E|-------------|-----------|-----------|-----------------|
B|-------------|-----------|-----------|-----------------|
G|-5-6-3-5-----|-6-3-5-----|-6-3-5-----|-7---------------|
D|16-------6-3-|-------6-3-|-------6-3-|16-5-6-5-3-------|
A|-------------|-----------|-----------|-----------6-4-3-|
E|-------------|-----------|-----------|-----------------|
B|-------------|-----------|-----------|-----------------|
 
 
 
 
     B                                           C#
     Gtr.1
E|--------------------------------------------|--------------------|
B|--------------------------------------------|--------------------|
G|12------------------------------------------|6-------------------|
D|-8-----4----3------------4----3^4^3---------|8-----6----4--3-----|
A|---2------2----6--4--2------2-------6-4-2---|--4------4-------6--|
E|------------------------------------------4-|--------------------|
B|--------------------------------------------|--------------------|
 
 
 
 
                                   A
    Gtr.1
E|-----------------------------|------------------------------------------|
B|-----------------------------|------------------------------------------|
G|7----------------------------|12----------------------------------------|
D|8-----6----4^6^4-3-----------|-8----------------------------------------|
A|--4------4---------6-4-2-4-6-|-------7----6------------7----9-7-6-------|
E|-----------------------------|---5------5----9--7--5------5-------9-7-5-|
B|-----------------------------|------------------------------------------|
 
 
 
 
    F#                                           E5               B5
    Gtr.1
                                                      P.M._ _ _
E|-----------------------------|--------------|----------------|-----------||
B|-----------------------------|--------------|----------------|-----------||
G|9----------------------------|3-------------|5---------------|3-4--4--4--||
D|8----------------------------|4-------------|8------2--2--2--|4-4--4--4--||
A|------4----3------------4----|--6-4-3-------|-------2--2--2--|--2--2--2--||
E|--2------2----6--4--2------2-|--------6-4-2-|--0----0--0--0--|-----------||
B|-----------------------------|--------------|----------------|-----------||
"            
Submit corrections


        Dance Of Eternity lessons Hard to play? Try these video lessons and learn fast Dance Of Eternity lessons
        
↑ Back to top | Tablatures and chords for acoustic guitar and electric guitar, ukulele, drums are parodies/interpretations of the original songs. You may use it for private study, scholarship, research or language learning purposes only