» » »

Dream Theater - Constant Motion Bass

Artists:  A B C D E F G H I J K L M N O P Q R S T U V W X Y Z # 

Constant Motion Bass

(ver. 1) Click to play this song!
Dream Theater
 Rating:
4/5 (4 votes)

 Constant Motion lessons Tabs too difficult? Try these video lessons and learn fast
 
                Dream Theater - Constant Motion
Tuning - B Standard

This is the 2nd time I'm doing this tab.
I'm pretty sure everything is right on this one...ENJOY

Intro
G|---------------------|--------------------------|
D|---------------------|--------------------------|
A|-----7-5-7-5---8-7---|-----7-5-7-5---8-10-7-----|
E|-0-5---------6-----6-|-0-5---------6--------8-6-|
B|---------------------|--------------------------|

G|---------------------|--------------------------------|
D|---------------------|--------------------------------|
A|-----7-5-7-5---8-7---|-----7-5-7-5---8-10-7-----------|
E|-0-5---------6-----6-|-0-5---------6--------8-6-8-7---|
B|---------------------|------------------------------6-|

G|---------------------|--------------------------|
D|---------------------|--------------------------|
A|-----7-5-7-5---8-7---|-----7-5-7-5---8-10-7-----|
E|-0-5---------6-----6-|-0-5---------6--------8-6-|
B|---------------------|--------------------------|

G|---------------------|-------------------------------------|
D|---------------------|-------------------------------------|
A|-----7-5-7-5---8-7---|-----7-5-7-5---8-10-7----------------|
E|-0-5---------6-----6-|-0-5---------6--------8-6-8-10-7-----|
B|---------------------|---------------------------------8-6-|

Intro B
G|---------------------|--------------------------|
D|---------------------|--------------------------|
A|---------------------|--------------------------|
E|-0-5-7-5-7-5---8-7---|-0-5-7-5-7-5---8-10-7-----|
B|-------------6-----6-|-------------6--------8-6-|

G|---------------------|--------------------------------|
D|---------------------|--------------------------------|
A|---------------------|--------------------------------|
E|-0-5-7-5-7-5---8-7---|-0-5-7-5-7-5---8-10-7-----7-----|
B|-------------6-----6-|-------------6--------8-6---8-6-|

G|---------------------|--------------------------|
D|---------------------|--------------------------|
A|---------------------|--------------------------|
E|-0-5-7-5-7-5---8-7---|-0-5-7-5-7-5---8-10-7-----|
B|-------------6-----6-|-------------6--------8-6-|

G|---------------------|----------------------------------|
D|---------------------|----------------------------------|
A|---------------------|----------------------------------|
E|-0-5-7-5-7-5---8-7---|-0-5-7-5-7-5-----8-10-7-----7-----|
B|-------------6-----6-|-------------0-0--------8-6---8-6-|

Pre-Chorus
G|------------------------------------------------------------------------|
D|------------------------------------------------------------------------|
A|------------------------------------------------------------------------|
E|-0~12\1-12\1-0-000-000-000-8-10-7-----000-1-0-1-0-000-1-0-000-0-1-0-----|
B|----------------------------------8-6-------------------------------3h6-|

G|---------------------------------|
D|---------------------------------|
A|---------------------------------|
E|-000-1-0-1-0-00-8-10-7-----7-----|
B|-----------------------8-6---8-6-|

Chorus 2x
G|-----------------------------------|---------------------------|
D|-----------------------------------|---------------------------|
A|-----------------------------------|---------------------------|
E|-000-1-0-1-0-000-1-0-000-0-1-0-----|-000-1-0-1-0-00-8-10-7-----|
B|-------------------------------3h6-|-----------------------8-6-|

G|-----------------------------------|---------------------------------|
D|-----------------------------------|---------------------------------|
A|-----------------------------------|---------------------------------|
E|-000-1-0-1-0-000-1-0-000-0-1-0-----|-000-1-0-1-0-00-8-10-7-----7-----|
B|-------------------------------3h6-|-----------------------8-6---8-6-|

Riff A
G|------------------------------------------------------------------------|
D|------------------------------------------------------------------------|
A|-2-0-2--0-2-3-2-0-----0-2-0-2--0-2-3-2-0-------0-2-0-2--0-2-3-2-0-----0-|
E|------------------2-2--------------------2-0-2--------------------2-2---|
B|------------------------------------------------------------------------|

G|---------------------------------|
D|---------5-4---0-2-0-------------|
A|-2-0-2-3-----3-------2-3-2-0-----|
E|-----------------------------2-3-|
B|---------------------------------|

Chorus 2
G|---------------------------------|----------------------------------|
D|---------------------------------|----------------------------------|
A|-----8-7-8-7-----8-7-----8-7-5-8-|-----8-7-8-7-----8-7---8-10-7-----|
E|-0-6---------0-6-----0-6---------|-0-6---------0-6-----0--------8-6-|
B|---------------------------------|----------------------------------|

G|---------------------------------|---------------------------------------|
D|---------------------------------|---------------------------------------|
A|-----8-7-8-7-----8-7-----8-7-5-8-|-----8-7-8-7-----8-7---8-10-7-----7----|
E|-0-6---------0-6-----0-6---------|-0-6---------0-6-----0--------8-6---8-6|
B|---------------------------------|---------------------------------------|

Main Riff
G|------------------------------------|
D|------------------------------------|
A|------------------------------------|  2x
E|-0-2222-000-2222-33-3h5555p33h55-66-|
B|------------------------------------|

G|-----------------------------------------------------------------------|
D|-----------------------------------------------------------------------|
A|-------------------------------------------------------------5555-6666-|
E|-0-2222-000-2222-33-3h5555p33h55-66-777777777777777-55555555-----------|
B|-----------------------------------------------------------------------|

G|------------------------------------------------------------------|
D|------------------------------------------------------------------|
A|---------------------------------------------------------5555-444-|
E|-0-2222-000-2222-33-3h5555p33h55-66-777777777777777-5555----------|
B|------------------------------------------------------------------|

Chorus 2x
G|-----------------------------------|---------------------------|
D|-----------------------------------|---------------------------|
A|-----------------------------------|---------------------------|
E|-000-1-0-1-0-000-1-0-000-0-1-0-----|-000-1-0-1-0-00-8-10-7-----|
B|-------------------------------3h6-|-----------------------8-6-|

G|-----------------------------------|---------------------------------|
D|-----------------------------------|---------------------------------|
A|-----------------------------------|---------------------------------|
E|-000-1-0-1-0-000-1-0-000-0-1-0-----|-000-1-0-1-0-00-8-10-7-----7-----|
B|-------------------------------3h6-|-----------------------8-6---8-6-|

I'm just gonna skip to the really fast bass part because I'm pretty sure you can figure 
the rest of the song on your own, I did 85% of all the parts so your fine.

Guitar Solo 12x
G|-------------------------------|-----------------------------|
D|-------------------------------|-----------------------------|
A|---7-9-7-10--9-7------7--------|---7-9-7-10--9-7-5-7-9-7---0-|
E|-----------------9-10---10-9---|-------------------------0---|
B|-7---------------------------8-|-7---------------------------|
            
Submit corrections


        Constant Motion lessons Hard to play? Try these video lessons and learn fast Constant Motion lessons
        
↑ Back to top | Tablatures and chords for acoustic guitar and electric guitar, ukulele, drums are parodies/interpretations of the original songs. You may use it for private study, scholarship, research or language learning purposes only