» » »

Dream Theater - Caught In A Web Tabs

Artists:  A B C D E F G H I J K L M N O P Q R S T U V W X Y Z # 

Caught In A Web Tabs

(ver. 1) Click to play this song!
Dream Theater
 Rating:
4/5 (4 votes)

 Caught In A Web lessons Tabs too difficult? Try these video lessons and learn fast
 
                ---------     ---------    --      --   --    --    --      --
----          --     --    ----    --   --    --    ----    --
----          ---------    -- --   --   --    --    -- --   -- 
---------     ---------    --  --  --   --    --    --  --  -- 
     ----     --     --    --   -- --   --    --    --   -- -- 
     ----     --     --    --    ----   --    --    --    ----
---------     --     --    --      --   --    --    --      -- 
                                        --
                                  --    --
                                    ----


                                                        
E ||-------------------------|-------------------------|
B ||-------------------------|-------------------------|
G ||-------------------------|-------------------------|
D ||-------------------------|-------------------------|
F#||--0h2-2-2-2h0-0-0-0h2-2--|--0h2-2-2-2h0-0-0-0-5-5--|
B ||--0h2-2-2-2h0-0-0-0-2-2--|--0h2-2-2-2h0-0-0-0-5-5--|


                                                                              
-------------------------|-------------------------|-------------------------|
-------------------------|-------------------------|-------------------------|
-------------------------|-------------------------|-------------------------|
-------------------------|-------------------------|-------------------------|
--0h2-2-2-2h0-0-0-0h2-2--|--0h2-2-2-2h0-0-0-0h3-3--|--0h2-2-2-2h0-0-0-0h2-2--|
--0h2-2-2-2h0-0-0-0h2-2--|--0h2-2-2-2h0-0-0-0h3-3--|--0h2-2-2-2h0-0-0-0h2-2--|


                                                                             
-------------------------|-------------------------|------------------------|
-------------------------|-------------------------|------------------------|
-------------------------|-------------------------|------------------------|
-------------------------|-------------------------|------------------------|
--0h2-2-2-2h0-0-0-0h5-5--|--0h2-2-2-2h0-0-0-0---2--|--0h2-2-2-2h0-0-0--3-3--|
--0h2-2-2-2h0-0-0-0h5-5--|--0h2-2-2-2h0-0-0-0h2-2--|--0h2-2-2-2h0-0-0--3-3--|


                                                                   
---------------------------------|--------------------------------|
---------------------------------|--------------------------------|
---------------------------------|--------------------------------|
---------------------------------|--------------------------------|
--0h2---2-2/3---------2----2-----|--0h2---2-2/3---------2--2-3--x-|
--0h2-2-2-2/3-x-2-x-2-2--2-2-2-2-|--0h2-2-2-2/3-x-0-0-5-2--2-2--x-|


                                                                  
--------------------------------|--------------------------------|
--------------------------------|--------------------------------|
--------------------------------|--------------------------------|
--------------------------------|--------------------------------|
--0h2---2-2/3---------2--2-3--x-|--0h2---2-2/3---------2--2-3--x-|
--0h2-2-2-2/3-x-0-0-5-2--2-2--x-|--0h2-2-2-2/3-x-0-0-5-2--2-2--x-|


                                                              
------------------------------|------------------------------|
------------------------------|------------------------------|
------------------------------|------------------------------|
------------------------------|------------------------------|
--0h2--2-2/3-------2--2-2-2---|--0h2--2-2-3-------2----2-----|
--0h2--2-2/3--2--2-2--2-2-2-5-|--0h2--2-2-3--2--2-2--2-0-3-4-|


                                                             
------------------------------|-----------------------------|
------------------------------|-----------------------------|
------------------------------|-----------------------------|
------------------------------|-----------------------------|
--0h2--2-2/3-------2--2-2-2---|--0-2----2-3-------2--2-2----|
--0h2--2-2/3--2--2-2--2-2-2-5-|--0-2--2-2-3--2--2-2--2-2--0-|


                                                            
-----------------------------|-----------------------------|
-----------------------------|-----------------------------|
-----------------------------|-----------------------------|
-----------------------------|-----------------------------|
--3-5--x-5-6-----x-----------|--3/5--x-5/6-----------------|
--5-7--x-7-8--0--x-0--0-0--0-|--5/7--x-7/8--0--1-0--0-0--0-|


                                                              
------------------------------|------------------------------|
------------------------------|------------------------------|
------------------------------|------------------------------|
------------------------------|------------------------------|
--0-2-----2-3--2--x-2---------|--0-2-----2-3--2--x-2--x-2--2-|
--0-2-2-2-2-3--2--x-2--2-2--5-|--0-2-2-2-2-3--2--x-2--x-2--2-|


                                                                              
-------------------------|-------------------------|-------------------------|
-------------------------|-------------------------|-------------------------|
-------------------------|-------------------------|-------------------------|
-------------------------|-------------------------|-------------------------|
--0h2-2-2-2h0-0-0-0h2-2--|--0h2-2-2-2h0-0-0-0-5-5--|--0h2-2-2-2h0-0-0-0h2-2--|
--0h2-2-2-2h0-0-0-0h2-2--|--0h2-2-2-2h0-0-0-0-5-5--|--0h2-2-2-2h0-0-0-0h2-2--|


                                                        
-------------------------|-----------------------------|
-------------------------|-----------------------------|
-------------------------|-----------------------------|
-------------------------|-----------------------------|
--0h2-2-2-2h0-0-0-0h3-3--|--0h2----2/3-------2--x-2----|
--0h2-2-2-2h0-0-0-0h3-3--|--0h2--2-2/3--2--2-2--x-2--4-|


                                                              
------------------------------|------------------------------|
------------------------------|------------------------------|
------------------------------|------------------------------|
------------------------------|------------------------------|
--0h2----2/3-------2----------|--0h2-----2/3-------2--x-2----|
--0h2--2-2/3--2--x-2--2-2-2-4-|--0h2-2-2-2/3--2--x-2--x-2--4-|


                                                              
------------------------------|------------------------------|
------------------------------|------------------------------|
------------------------------|------------------------------|
------------------------------|------------------------------|
--0h2----2/3-------2----------|--3/5--x-5/6-------0----------|
--0h2--2-2/3--2--x-2--2-2-2-2-|--5/7--x-7/8--0--0-0--0-0-0-1-|


                                                             
------------------------------|-----------------------------|
------------------------------|-----------------------------|
------------------------------|-----------------------------|
------------------------------|-----------------------------|
--3/5--x-5/6-------0----------|--0h2--2-2h3-------2---------|
--5/7--x-7/8--0--1-0--0-0-1-0-|--0h2--2-2h3--3--x-2--2-3--5-|


                                                               
------------------------------|-------------------------------|
------------------------------|-------------------------------|
------------------------------|-------------------------------|
------------------------------|-------------------------------|
--0h2--2-2-3-----3-2----------|--7-5--------------------------|
--0h2--2-2-3--2--3-2--2-2-2-2-|------9-7--5-9-7-5-0--2--5-7-9-|


                                                         
------------------------|-------------------------------|
------------------------|-------------------------------|
------------------------|-------------------------------|
------------------------|-------------------------------|
--7-5-----------------5-|--7-5--------------------------|
------9-7--2-5-2-8--9---|------9-7--5-9-7-5-0--2--5-7-9-|


                                                                           
---------------------------|-----------------------|----------------------|
---------------------------|-----------------------|----------------------|
---------------------------|-----------0-----------|-------------0--------|
---------------5-3---------|-----------------------|----------------------|
--7-5---10-7-5-----7-5-----|--8--8--8-----------4--|----4--4--4-----------|
------9----------------8-6-|--8--8--8-----------4--|----4--4--4-----------|


                                                       
------------------------|-----------------------------|
------------------------|-----------------------------|
----------------0-------|-----------------3-----------|
---------------------3--|----3--3--3------3--3h5h3----|
--1--1--1--1---------4--|----4--4--4--6/8----------8--|
--1--1--1--1------------|-----------------------------|


                                                                            
-------------------------|----------------------|--------------------------|
--------0----------------|----------------------|--------------------------|
--------0--0-------0-----|-------------0--------|--------2h-0--2-----2--0--|
-------------------------|----------------------|--------0-----0--0--------|
-----8----------8-----4--|----4--4--4-----------|--3--3--------3--------1--|
--8-------------------4--|----4--4--4-----------|--3-----------3--------1--|


                                                                
------------------------------|--------------------------------|
------------------------------|--------------------------------|
----------0-------------------|--------------------------------|
------------------------------|--------------------------------|
----1--1-----1----1-----------|--------------------------------|
----1--1-----1----1---x-15/---|--2-2-0-2--0-2-2-0-2--0-2-2-0-5-|


                                                                   
--------------------------------|---------------------------------|
--------------------------------|---------------------------------|
--------------------------------|---------------------------------|
--------------------------------|---------------------------------|
--------------------------------|--0h2-2-2-2h0-0-0--2-2-2-0h3-3-3-|
--2-2-0-2--0-2-2-0-2--0-2-2-0-3-|--0h2-2-2-2h0-0-0--2-2-2-0h3-3-3-|


                                                                              
---------------------------------|---------------------|---------------------|
---------------------------------|----------4----------|---------------------|
---------------------------------|---------------------|----------6----------|
---------------------------------|--4---6--------------|--4---6--------------|
--0h2-2-2-2-0-0-0--2-2-2-0h3-3---|--7---7--------------|--7---7--------------|
--0h2-2-2-2-0-0-0--2-2-2-0h3-3-0-|---------------------|---------------------|


                                                                   
---------------------|----------------------|---------------------|
---------------------|----------------------|----------2----------|
----------4----------|----------------------|---------------------|
--4---6--------------|--4---6---7------6----|--2---4--------------|
--7---7--------------|--7---7---7------7----|--5---5--------------|
---------------------|----------------------|---------------------|


                                                        
----------------------|--------------------------------|
----------------------|--------------------------------|
----------2-----------|--------------------------------|
--2---4----------4----|--------------------------------|
--5---5---------------|--0-2--2-2----------2-2-0h2-2-2-|
----------------------|--0-2--2-2h0-0-0--2-2-2-0h2-2-2-|


                                                                
-------------------------------|-------------------------------|
-------------------------------|-------------------------------|
-------------------------------|-------------------------------|
-------------------------------|-------------------------------|
--0-2--2-2h0--------2--0-2-2---|--5h7-7-7-5h7-7------7--7-5----|
--0-2--2-2h0-0-0--2-2--0-2-2h0-|----------------2--2--------9--|


                                                                
-------------------------------|-------------------------------|
-------------------------------|-------------------------------|
-------------------------------|-------------------------------|
-------------------------------|-------------------------------|
--5h7-7-7-5h7-7------7--7-5----|--5h7-7-7-5h7-7------7--7-5----|
----------------2--2--------9--|----------------2--2--------9--|


                                                                
-------------------------------|-------------------------------|
-------------------------------|-------------------------------|
-------------------------------|-------------------------------|
-------------------------------|-------------------------------|
--5h7-7-7-5h7-7------7--7-5----|--3h5-5-5-3h5-5------5--5-3----|
----------------2--2--------9--|----------------0--0--------7--|


                                                                
-------------------------------|-------------------------------|
-------------------------------|-------------------------------|
-------------------------------|-------------------------------|
-------------------------------|-------------------------------|
--3h5-5-5-3h5-5------5--5-3----|--5h7-7-7-5h7-7------7--7-5----|
----------------0--0--------7--|----------------2--2--------9--|


                                                                               
-------------------------------|-----------------------|----------------------|
-------------------------------|-----------------------|----------------------|
-------------------------------|-----------0-----------|-------------0--------|
-------------------------------|-----------------------|----------------------|
--5h7-7-7-5h7-7------7--7-5----|--8--8--8-----------4--|----4--4--4-----------|
----------------2--2--------9--|--8--8--8-----------4--|----4--4--4-----------|


                                                       
------------------------|-----------------------------|
------------------------|-----------------------------|
----------------0-------|-----------------3-----------|
---------------------3--|----3--3--3------3--3h5h3----|
--1--1--1--1---------4--|----4--4--4--6/8----------8--|
--1--1--1--1------------|-----------------------------|


                                                                            
-------------------------|----------------------|--------------------------|
--------0----------------|----------------------|--------------------------|
--------0--0-------0-----|-------------0--------|--------2--0--2-----2--0--|
-------------------------|----------------------|--------0-----0--0--------|
-----8----------8-----4--|----4--4--4-----------|--3--3--------3--------1--|
--8-------------------4--|----4--4--4-----------|--3-----------3--------1--|


                                                                  
------------------------------||---------------------------------|
------------------------------||---------------------------------|
----------0-------------------||*--------------------------------|
------------------------------||*--------------------------------|
----1--1-----1----1-----------||---------------------------------|
----1--1-----1----1---x-15/---||---2-2-0-2--0-2-2-0-2--0-2-2-0-5-|


                                                                      
---------------------------------||----------------------------------|
---------------------------------||----------------------------------|
--------------------------------*||----------------------------------|
--------------------------------*||----------------------------------|
---------------------------------||----------1h0---------3-2-1-0-----|
--2-2-0-2--0-2-2-0-2--0-2-2-0-3--||--2-3-4-5-----5-4-3-2---------5-4-|


                                                                   
-------------------------------|----------------------------------|
-------------------------------|----------------------------------|
-------------------------------|----------------------------------|
-------------------------------|----------------------------------|
--2/3-3-3-3/2-2-2--2-2----2--x-|--1-1-----------2-1-0-----1-0-----|
--2/3-3-3-3/2-2-2--2-2--2-2--x-|------6-5-4-3-4-------3-2-----6-5-|


                                                                   
-------------------------------|----------------------------------|
-------------------------------|----------------------------------|
-------------------------------|----------------------------------|
-------------------------------|----------------------------------|
--2/3-3-3-3/2-2-2--2-2----2--2-|----------1h0---------3-2-1-0-----|
--2/3-3-3-3/2-2-2--2-2--2-2--2-|--2-3-4-5-----5-4-3-2---------5-4-|


                                                                      
----------------------------------|----------------------------------|
----------------------------------|----------------------------------|
----------------------------------|----------------------------------|
----------------------------------|----------------------------------|
--1-1-----------2-1-0-----1-0-----|------------1-0-3-2-----4-3---6---|
------6-5-4-3-4-------3-2-----6-0-|--1-2-3-5-4---------3-2-----4---5-|


                                                      
---------------------------------|-------------------|
---------------------------------|-------------------|
---------------------------------|-------------------|
---------------------------------|---------------4~--|
--7-6-4-3---9-8-6---10~--9-8-6-5-|-----11-10-8-0-----|
----------9-------5--------------|--11---------------|


                                                                        
----------------------------------|------------------------------------|
----------------------------------|------------------------------------|
----------------------------------|----------0h1h0-----------1-0-------|
------------0-1-2-5-4-2-1-0---7-6-|--5-4-2-1-------3-2-1-0-1-----4-0---|
--2-3-4-5-7-----------------7-----|----------------------------------7-|
----------------------------------|------------------------------------|


                                                                           
-----------------------------------|--------------------------------------|
-----------------------------------|--------------------------------------|
-----------------------------------|------------------------8-7-------9~--|
--5-4-3--------------5-4-7-6-0---8-|--7---10----11-10-8-7-6-----10--------|
--------5-6-7-8-10-9-----------7---|----9----10--------------------10-----|
-----------------------------------|--------------------------------------|


                              
-----------------------------|
-----------------------------|
--8-7--------10-9-------11~--|
------10-9-8------12---------|
---------------------12------|
-----------------------------|


                                                       
------------------------------------------------------|
---------------11-9----------------------11-9---------|
--12-11-8----9------11-9----12-11-8----9------11-9----|
----------11-------------10---------11-------------10-|
------------------------------------------------------|
------------------------------------------------------|


                                                                          
----------------------------------------------|--------------------------|
--12-11-9------14-12-11-------12-11-9------14-|--12-11-------12-11-------|
----------11-9----------13-11---------11-9----|--------13-11-------13-11-|
----------------------------------------------|--------------------------|
----------------------------------------------|--------------------------|
----------------------------------------------|--------------------------|


                                                               
--------------------------------------------------------------|
--15-14-12-------17-15-14-------15-14-12-------17-15-14-------|
-----------14-12----------16-14----------14-12----------16-14-|
--------------------------------------------------------------|
--------------------------------------------------------------|
--------------------------------------------------------------|


                                                                           
--17-18-17-15-------17-18-17-15-------20-15-20-15-------20-15-20-15-------|
--------------17-15-------------17-15-------------------------------------|
--------------------------------------------------17-15-------------17-15-|


                                                                           
--17-18-17-15-------17-18-17-15-------20-15-20-15-------20-15-20-15-------|
--------------17-15-------------17-15-------------------------------------|
--------------------------------------------------17-15-------------17-15-|


                                                                           
--17-18-17-15-------17-18-17-15-------20-15-20-15-------20-15-20-15-------|
--------------18-15-------------18-15-------------------------------------|
--------------------------------------------------17-15-------------17-15-|


                                                                           
--17-18-17-15-------17-18-17-15-------20-15-20-15-------20-15-20-15-------|
--------------18-15-------------18-15-------------------------------------|
--------------------------------------------------17-15-------------17-15-|


                                                                     
--19-21-19-17-------------------------------------------------------|
--------------19-17-------------------------------------------------|
--------------------16-18-16-14-------------------------------------|
--------------------------------16-14-------------------------------|
--------------------------------------17-19-17-15-------5-7-5-3-----|
--------------------------------------------------19-17---------7-5-|


                                                                            
---------------|--------------|--------------|--------------|--------------|
---------------|--------------|--------------|--------------|--------------|
---------------|--------------|--------------|--------------|--------------|
---------------|--------------|--------------|--------------|--------------|
--2------------|--------------|--------------|--------------|--------------|
--2------------|--------------|--------------|--------------|--------------|


                                                                        
---------------|--------------|--------------|-------------------------|
---------------|--------------|--------------|-------------------------|
---------------|--------------|--------------|-------------------------|
---------------|--------------|--------------|-------------------------|
---------------|--------------|--------------|-------------------------|
--2------------|--------------|--------------|--------2-2--2-2--2-2--2-|


                                                                              
-------------------------|-------------------------|-------------------------|
-------------------------|-------------------------|-------------------------|
-------------------------|-------------------------|-------------------------|
-------------------------|-------------------------|-------------------------|
-------------------------|-------------------------|-------------------------|
--------2-2--2-2--2-2--2-|--------2-2--2-2--2-2--2-|--------2-2--2-2--2-2--2-|


                                                     
--------------------------|-------------------------|
--------------------------|-------------------------|
--------------------------|-------------------------|
--------------------------|-------------------------|
--------2-2-2-2-2--2-2--2-|--------2-2--2-2--2-2--2-|
--------2-2-2-2-2--2-2--2-|--------2-2--2-2--2-2--2-|


                                                        
---------------------------|---------------------------|
---------------------------|---------------------------|
---------------------------|---------------------------|
---------------------------|---------------------------|
----------2-2--2-2--2-2--2-|----------2-2--2-2--2-2--2-|
------2/3-2-2--2-2--2-2--2-|------2/3-2-2--2-2--2-2--2-|


                                                                
-------------------------------|-------------------------------|
-------------------------------|-------------------------------|
-------------------------------|-------------------------------|
-------------------------------|-------------------------------|
--x-x-x-x-x-x------------------|--x-x-x-x-x-x------------------|
--x-x-x-x-x-x-0-0--0-0--0-0--0-|--x-x-x-x-x-x-0-0--0-0--0-0--0-|


                                                            
------------------------------|----------------------------|
------------------------------|----------------------------|
------------------------------|----------------------------|
------------------------------|----------------------------|
--1/2----2/3--------2--2-2----|--1/2----2/3-------2--2-2---|
--1/2--2-2/3--2-2-x-2--2-2--5-|--1/2--2-2/3--2--2-2--2-2---|


                                                        
---------------------------|---------------------------|
---------------------------|---------------------------|
---------------------------|---------------------------|
--4---4--------------------|--4---4--------------------|
--7---7--2-2---2-2--2-2--x-|--7---7--2-2---2-2--2-2--x-|
---------2-2---2-2--2-2--x-|---------2-2---2-2--2-2--x-|


                                                        
---------------------------|---------------------------|
---------------------------|---------------------------|
---------------------------|---------------------------|
--4---4--------------------|--4---4--------------------|
--7---7--2-2---2-2--2-2--x-|--7---7--2-2---2-2--2-2--x-|
---------2-2---2-2--2-2--x-|---------2-2---2-2--2-2--x-|


                                                        
---------------------------|---------------------------|
---------------------------|---------------------------|
---------------------------|---------------------------|
--2---4--------------------|--2---4--------------------|
--5---5--0-0---0-0--0-0--x-|--5---5--0-0---0-0--0-0--x-|
---------0-0---0-0--0-0--x-|---------0-0---0-0--0-0--x-|


                                                            
-----------------------------|-----------------------------|
-----------------------------|-----------------------------|
-----------------------------|-----------------------------|
-----------------------------|-----------------------------|
--0h2----2/3-------2--2-2----|--0h2----2/3-------2--2-2----|
--0h2--2-2/3--2--2-2--2-2--5-|--0h2--2-2/3--2--2-2--2-2--0-|


                                                         
-------------------------------|------------------------|
-------------------------------|------------------------|
-------------------------------|------------------------|
-------------------------------|------------------------|
--7-5--------------------------|--7-5-----------------5-|
------9-7--5-9-7-5-0--2--5-7-9-|------9-7--2-5-2-8--9---|


                                                            
-------------------------------|---------------------------|
-------------------------------|---------------------------|
-------------------------------|---------------------------|
-------------------------------|---------------5-3---------|
--7-5--------------------------|--7-5---10-7-5-----7-5-----|
------9-7--5-9-7-5-0--2--5-7-9-|------9----------------8-6-|


                                                                        
-----------------------|----------------------|------------------------|
-----------------------|----------------------|------------------------|
-----------0-----------|-------------0--------|----------------0-------|
-----------------------|----------------------|---------------------3--|
--8--8--8-----------4--|----4--4--4-----------|--1--1--1--1---------4--|
--8--8--8-----------4--|----4--4--4-----------|--1--1--1--1------------|


                                                                               
-----------------------------|-------------------------|----------------------|
-----------------------------|--------0----------------|----------------------|
-----------------3-----------|--------0--0-------0-----|-------------0--------|
----3--3--3------3--3h5h3----|-------------------------|----------------------|
----4--4--4--6/8----------8--|-----8----------8-----4--|----4--4--4-----------|
-----------------------------|--8-------------------4--|----4--4--4-----------|


                                                                            
--------------------------|------------------------|-----------------------|
--------------------------|------------------------|-----------------------|
--------2h-0--2-----2--0--|----0--0-----0-------0--|--12----12-------------|
--------0-----0--0--------|------------------------|--12----12----------8--|
--3--3--------3--------1--|----1--1-----1----1-----|--13----13----------9--|
--3-----------3--------1--|----1--1-1---1----1-----|-----------------------|


                                                               
------------------|--------------------|------------1---------|
------------------|--------------------|------3--4-------1----|
------------------|-----------------3--|----------------------|
------------------|--6--------------3--|----------------------|
------------------|--6--------------4--|----------------------|
------------------|--------------------|----------------------|


                                                                     
-----------------------|------------------|-------------------------|
-----------------------|------------------|-------------------------|
--12----12-------------|------------------|--7-----7-----7----7--5--|
--12----12----------8--|------------------|--7--7-----5--7----7--5--|
--13----13----------9--|------------------|--8-----------8----8--6--|
-----------------------|------------------|-------------------------|


                                                                    
------------------------------||-----------------------------------|
-------------3----------------||-----------------------------------|
-------5-----5-----5----------||*----------------------------------|
----5--5--5--5--5-------------||*----------------------------------|
-------6-----6----------------||---7-7-5-7-7-5-7-7-5-7--5-7-7-5-10-|
------------------------19/---||-----------------------------------|


                                                                              
-----------------------------------||----------|----------------------------||
-----------------------------------||----------|----------------------------||
----------------------------------*||----------|----------------------------||
----------------------------------*||----------|----------------------------||
--7-7-5-7-7-5-7-7-5-7-7-5-7-7-5-8--||----------|--2/3-3-3-3/2-2-2--2-2------||
-----------------------------------||----------|--2/3-3-3-3/2-2-2--2-2------||

ThAt'S iT!!! RaTe Me!!!!!!
            
Submit corrections


        Caught In A Web lessons Hard to play? Try these video lessons and learn fast Caught In A Web lessons
        
↑ Back to top | Tablatures and chords for acoustic guitar and electric guitar, ukulele, drums are parodies/interpretations of the original songs. You may use it for private study, scholarship, research or language learning purposes only