» » »

Dream Theater - Beyond This Life Tabs

Artists:  A B C D E F G H I J K L M N O P Q R S T U V W X Y Z # 

Beyond This Life Tabs

(ver. 2) Click to play this song!
Dream Theater
 Rating:
4/5 (4 votes)

 Beyond This Life lessons Tabs too difficult? Try these video lessons and learn fast
 
                Scene Four : Beyond This Life                           

                                                                   

                                                                  
|---------------------------------|
|---------------------------------|
|*--------------------------------|
|*--------------------------------|
|---6--6--6--9--9--9--5--5--4--4--|
|---4--4--4--7--7--7--3--3--2--2--|


                                                                  
--------------------------------|--------------------------------|
--------------------------------|--------------------------------|
--------------------------------|--------------------------------|
--------------------------------|--------------------------------|
--6--6--6--9--9--9--5--5--4--4--|--6--6--6--9--9--9--5--5--4--4--|
--4--4--4--7--7--7--3--3--2--2--|--4--4--4--7--7--7--3--3--2--2--|


                                                                 
------------------------------------||--------------------------|
------------------------------------||--------------------------|
-----------------------------------*||--------------------------|
-----------------------------------*||--------------------------|
--10--10--10--9--9--9--8--8--7--7---||-----------6-----------5--|
--8---8---8---7--7--7--6--6--5--5---||--4--2--4-----4--2--4-----|


                                                                           
-----------------------|--------------------------|-----------------------|
-----------------------|--------------------------|-----------------------|
-----------------------|--------------------------|-----------------------|
-----------------------|--------------------------|-----------------------|
-----------3h-2--------|-----------6-----------5--|-----------3h-2--------|
--4--2--4--------4--2--|--4--2--4-----4--2--4-----|--4--2--4--------4--2--|


                                                                              
--------------------------|-----------------------|--------------------------|
--------------------------|-----------------------|--------------------------|
--------------------------|-----------------------|--------------------------|
--------------------------|-----------------------|--------------------------|
-----------6-----------5--|-----------3h-2--------|-----------6-----------8--|
--4--2--4-----4--2--4-----|--4--2--4--------4--2--|--4--2--4-----4--2--4-----|


                                                                                
----------------------------|---------------||---------------------------------|
----------------------------|---------------||---------------------------------|
----------------------------|---------------||*--------------------------------|
----------------------------|---------------||*--------------------------------|
-----------9--8--9--11--9-8-|------8--------||---6--6--6--9--9--9--5--5--4--4--|
--7--6--7-------------------|--10-----7--6--||---4--4--4--7--7--7--3--3--2--2--|


                                                                  
--------------------------------|--------------------------------|
--------------------------------|--------------------------------|
--------------------------------|--------------------------------|
--------------------------------|--------------------------------|
--6--6--6--9--9--9--5--5--4--4--|--6--6--6--9--9--9--5--5--4--4--|
--4--4--4--7--7--7--3--3--2--2--|--4--4--4--7--7--7--3--3--2--2--|


                                                                              
------------------------------------||----|----|----|----|----|----|----|----|
------------------------------------||----|----|----|----|----|----|----|----|
-----------------------------------*||----|----|----|----|----|----|----|----|
-----------------------------------*||----|----|----|----|----|----|----|----|
--10--10--10--9--9--9--8--8--7--7---||----|----|----|----|----|----|----|----|
--8---8---8---7--7--7--6--6--5--5---||----|----|----|----|----|----|----|----|


                                                                            
----|----|----|----|----|----|----|-----------------------------------|----|
----|----|----|----|----|----|----|-----------------------------------|----|
----|----|----|----|----|----|----|-----------------------------------|----|
----|----|----|----|----|----|----|-----------------------------------|----|
----|----|----|----|----|----|----|--10--10--10--9--9--9--8--8--7--7--|----|
----|----|----|----|----|----|----|--8---8---8---7--7--7--6--6--5--5--|----|


                                                              
----|----|----|----|----|----|----|--------------------------|
----|----|----|----|----|----|----|--------------------------|
----|----|----|----|----|----|----|--------------------------|
----|----|----|----|----|----|----|--------------------------|
----|----|----|----|----|----|----|-----------6-----------5--|
----|----|----|----|----|----|----|--4--2--4-----4--2--4-----|


                                                                           
-----------------------|--------------------------|-----------------------|
-----------------------|--------------------------|-----------------------|
-----------------------|--------------------------|-----------------------|
-----------------------|--------------------------|-----------------------|
-----------3h-2--------|-----------6-----------5--|-----------3h-2--------|
--4--2--4--------4--2--|--4--2--4-----4--2--4-----|--4--2--4--------4--2--|


                                                                              
--------------------------|-----------------------|--------------------------|
--------------------------|-----------------------|--------------------------|
--------------------------|-----------------------|--------------------------|
--------------------------|-----------------------|--------------------------|
-----------6-----------5--|-----------3h-2--------|-----------6-----------8--|
--4--2--4-----4--2--4-----|--4--2--4--------4--2--|--4--2--4-----4--2--4-----|


                                                                                
----------------------------|---------------|----|----|----|----|----|----|----|
----------------------------|---------------|----|----|----|----|----|----|----|
----------------------------|---------------|----|----|----|----|----|----|----|
----------------------------|---------------|----|----|----|----|----|----|----|
-----------9--8--9--11--9-8-|------8--------|----|----|----|----|----|----|----|
--7--6--7-------------------|--10-----7--6--|----|----|----|----|----|----|----|


                                                                             
--------------------------|------------------------|------------------------|
--8------7------6----5----|--------------6----7----|--------------6----7----|
--------------------------|------------------------|------------------------|
--------------------------|------------------------|------------------------|
--------------------------|------------------------|------------------------|
--------------------------|------------------------|------------------------|


                                                                             
------------------------|--------------------------|------------------------|
--------------6----7----|--8------7------6----5----|--------------6----7----|
------------------------|--------------------------|------------------------|
------------------------|--------------------------|------------------------|
------------------------|--------------------------|------------------------|
------------------------|--------------------------|------------------------|


                                                                             
------------------------|------------------------|--------------------------|
--------------6----7----|--------------6----7----|--8------7------6----5----|
------------------------|------------------------|--------------------------|
------------------------|------------------------|--------------------------|
------------------------|------------------------|--------------------------|
------------------------|------------------------|--------------------------|




                                                               
--------------------------------------------------------------|
--15-16-12-15----12-------12-15----12-15-16-12-15----12-------|
--------------16----15-16-------16----------------16----15-16-|
--------------------------------------------------------------|
--------------------------------------------------------------|
--------------------------------------------------------------|


                                                               
--------------------------------------------------------------|
--------------------------------------12-15----12-15-16-12-15-|
--12-15----12-------12-15----12-15-16-------16----------------|
--------17----16-17-------17----------------------------------|
--------------------------------------------------------------|
--------------------------------------------------------------|


                                                               
--------------------------------13-14----13-14-18-13-14----13-|
-----12-------12-15----12-15-16-------16----------------16----|
--16----15-16-------16----------------------------------------|
--------------------------------------------------------------|
--------------------------------------------------------------|
--------------------------------------------------------------|


                                                               
--16-12----16----12-17-13----17----13----14-18-14-19-15----15-|
--------13----13----------14----14----15----------------16----|
--------------------------------------------------------------|
--------------------------------------------------------------|
--------------------------------------------------------------|
--------------------------------------------------------------|


                                                               
--------------------------------------------------------------|
--15-16-12-15----12-------12-15----12-15-16-12-15----12-------|
--------------16----15-16-------16----------------16----15-16-|
--------------------------------------------------------------|
--------------------------------------------------------------|
--------------------------------------------------------------|


                                                               
--------------------------------------------------------------|
--------------------------------------12-15----12-15-16-12-15-|
--12-15----12-------12-15----12-15-16-------16----------------|
--------17----16-17-------17----------------------------------|
--------------------------------------------------------------|
--------------------------------------------------------------|


                                                               
--------------------------------13-14----13-14-18-13-14----13-|
-----12-------12-15----12-15-16-------16----------------16----|
--16----15-16-------16----------------------------------------|
--------------------------------------------------------------|
--------------------------------------------------------------|
--------------------------------------------------------------|


                                                               
--16-12----16----12-17-13----17----13----14-18-14-19-15----15-|
--------13----13----------14----14----15----------------16----|
--------------------------------------------------------------|
--------------------------------------------------------------|
--------------------------------------------------------------|
--------------------------------------------------------------|


                                                      
--------------------------|--------------------------|
--------------------------|--------------------------|
--------------------------|--------------------------|
--------------------------|--------------------------|
-----------2-----4h-2-----|--------------------------|
--2h-4--4-----4--------4--|--2h-4--4--4--2h-4--4--4--|


                                                       
---------------------------|--------------------------|
---------------------------|--------------------------|
-----------------1---------|--------------------------|
--------------------4-1----|-----------------4--3-----|
-----------2------------2--|-----4--------4--------4--|
--2h-4--4-----4------------|--1-----1/-2--------------|


                                                      
--------------------------|--------------------------|
--------------------------|--------------------------|
--------------------------|--------------------------|
--------------------------|--------------------------|
-----------2-----4h-2-----|--------------------------|
--2h-4--4-----4--------4--|--2h-4--4--4--2h-4--4--4--|


                                                                             
---------------------------|---------------------|--------------------------|
---------------------------|---------------------|--------------------------|
---------------------------|---------------------|--------------------------|
---------------------------|--4------6-----------|--------------------------|
-----------2-----4---------|--2------4------4----|-----------2-----4h-2-----|
--2h-4--4-----4-----2-3-4--|----------------2----|--2h-4--4-----4--------4--|


                                                       
--------------------------|---------------------------|
--------------------------|---------------------------|
--------------------------|-----------------1---------|
--------------------------|--------------------4-1----|
--------------------------|-----------2------------2--|
--2h-4--4--4--2h-4--4--4--|--2h-4--4-----4------------|


                                                      
--------------------------|--------------------------|
--------------------------|--------------------------|
--------------------------|--------------------------|
-----------------4--3-----|--------------------------|
-----4--------4--------4--|-----------2-----4h-2-----|
--1-----1/-2--------------|--2h-4--4-----4--------4--|


                                                                             
--------------------------|---------------------------|---------------------|
--------------------------|---------------------------|---------------------|
--------------------------|---------------------------|---------------------|
--------------------------|---------------------------|--4------6-----------|
--------------------------|-----------2-----4---------|--2------4------4----|
--2h-4--4--4--2h-4--4--4--|--2h-4--4-----4-----2-3-4--|----------------2----|


                                                
-----------------------------------------------|
-----------------------------------------------|
-----------------------------------------------|
-----------------------------------11--13--14--|
-------------------------------11--------------|
--9--8--9--11--12--11--12--14------------------|


                                                                        
-------------------------------------------|---------------------------|
-------------------------------------------|---------------------------|
-------------------------------------------|---------------------------|
-------------------------------------------|---------------------------|
--11-----11--13--14-----7--9--11-----4--6--|---------2-----2--4--5--6--|
------0--------------0------------0--------|--2-3-4-----4--------------|


                                                                          
----------------------|---------------------------|----------------------|
----------------------|---------------------------|----------------------|
----------------------|---------------------------|--4-------------------|
----------------------|---------------------------|-----6----6----6~-----|
--2-------------------|---------2-----2--4--5--6--|----------------------|
-----4----4----4~-----|--2-3-4-----4--------------|----------------------|


                                                
-----------------------------------------------|
-----------------------------------------------|
-----------------------------------------------|
-----------------------------------11--13--14--|
-------------------------------11--------------|
--9--8--9--11--12--11--12--14------------------|


                                            
-------------------------------------------|
-------------------------------------------|
-------------------------------------------|
-------------------------------------------|
--11-----11--13--14-----7--9--11-----4--6--|
------0--------------0------------0--------|


                                                                  
--------------------------------------|--------------------------|
--------------------------------------|--------------------------|
-----------------------------5--------|--------------------------|
--5-----5--7--5-----8--5--------8--7--|--------------------------|
-----6-----------6--------6-----------|--6--0--4--6--7--0--6--7--|
--------------------------------------|--------------------------|


                                                       
---------------------------|--------------------------|
---------------------------|--------------------------|
---------------------------|--------------------------|
---------------------------|--------------------------|
--9--7-6----7-----7--6-----|-----------2-----------4--|
---------9-----5--------4--|--2--3--4-----4--3--2-----|


                                                                  
--------------------------------------|--------------------------|
--------------------------------------|--------------------------|
--------------------------------------|--------------------------|
--------------------------------------|--------------------------|
-----3-----2--------------------------|-----------2-----------4--|
--2-----4-----4--3--2--3--4--4--4--4--|--2--3--4-----4--3--3-----|


                                                                   
---------------------------------------|--------------------------|
---------------------------------------|--------------------------|
---------------------------------------|--------------------------|
---------------------------------------|--------------------------|
-----3-----2---------------------------|-----------2-----------4--|
--2-----4-----4--3--2--4--0-0-0--0--0--|--2--3--4-----4--3--3-----|


                                                                      
--------------------------------------|------------------------------|
--------------------------------------|------------------------------|
--------------------------------------|------------------------------|
--------------------------------------|------------------------------|
-----3-----2--------------------------|------------2-----------------|
--2-----4-----4--3--2--3--4--4--4--4--|--2-3-4--4-----4--3--2--3--4--|


                                                      
--------------------------|--------------------------|
--------------------------|--------------------------|
--------------------------|--------------------------|
--4/-6--6--6--4/-6--6--6--|--------------------------|
--2/-4--4--4--2/-4--4--4--|-----------2-----------4--|
--------------------------|--2--3--4-----4--3--2-----|


                                                                  
--------------------------------------|--------------------------|
--------------------------------------|--------------------------|
--------------------------------------|--------------------------|
--------------------------------------|--------------------------|
-----3-----2--------------------------|-----------2-----------4--|
--2-----4-----4--3--2--3--4--4--4--4--|--2--3--4-----4--3--3-----|


                                                                   
---------------------------------------|--------------------------|
---------------------------------------|--------------------------|
---------------------------------------|--------------------------|
---------------------------------------|--------------------------|
-----3-----2---------------------------|-----------2-----------4--|
--2-----4-----4--3--2--4--0-0-0--0--0--|--2--3--4-----4--3--3-----|


                                                                      
--------------------------------------|------------------------------|
--------------------------------------|------------------------------|
--------------------------------------|------------------------------|
--------------------------------------|------------------------------|
-----3-----2--------------------------|------------2-----------------|
--2-----4-----4--3--2--3--4--4--4--4--|--2-3-4--4-----4--3--2--3--4--|


                                                                              
--------------------------|--------------------------------------|-----------|
--------------------------|--------------------------------------|-----------|
--------------------------|--------------------------------------|-----------|
--4/-6--6--6--4/-6--6--6--|--------------------------------------|-----------|
--2/-4--4--4--2/-4--4--4--|-----------6-----------5-----------3h-|--2--------|
--------------------------|--4--2--4-----4--2--4-----4--2--4-----|-----4--2--|


                                                   
--------------------------------------|-----------|
--------------------------------------|-----------|
--------------------------------------|-----------|
--------------------------------------|-----------|
-----------6-----------5-----------3h-|--2--------|
--4--2--4-----4--2--4-----4--2--4-----|-----4--2--|


                                                   
--------------------------------------|-----------|
--------------------------------------|-----------|
--------------------------------------|-----------|
--------------------------------------|-----------|
-----------6-----------5-----------3h-|--2--------|
--4--2--4-----4--2--4-----4--2--4-----|-----4--2--|


                                                                        
--------------------------------------|--------------------------------|
--------------------------------------|--------------------------------|
--------------------------------------|--------------------------------|
--------------------------------------|--------------------------------|
-----------6-----------8-----------9--|--8--9--11--9-8-----8-----------|
--4--2--4-----4--2--4-----7--6--7-----|----------------10-----7--6--7--|


                                                
-----------------------------------------------|
-----------------------------------------------|
-----------------------------------------------|
-----------------------------------11--13--14--|
-------------------------------11--------------|
--9--8--9--11--12--11--12--14------------------|


                                            
-------------------------------------------|
-------------------------------------------|
-------------------------------------------|
-------------------------------------------|
--11-----11--13--14-----7--9--11-----4--6--|
------0--------------0------------0--------|


                                                   
--------------------------------------|-----------|
--------------------------------------|-----------|
--------------------------------------|-----------|
--------------------------------------|-----------|
-----------6-----------5-----------3h-|--2--------|
--4--2--4-----4--2--4-----4--2--4-----|-----4--2--|


                                                   
--------------------------------------|-----------|
--------------------------------------|-----------|
--------------------------------------|-----------|
--------------------------------------|-----------|
-----------6-----------5-----------3h-|--2--------|
--4--2--4-----4--2--4-----4--2--4-----|-----4--2--|


                                                
-----------------------------------------------|
-----------------------------------------------|
-----------------------------------------------|
-----------------------------------11--13--14--|
-------------------------------11--------------|
--9--8--9--11--12--11--12--14------------------|


                                            
-------------------------------------------|
-------------------------------------------|
-------------------------------------------|
-------------------------------------------|
--11-----11--13--14-----7--9--11-----4--6--|
------0--------------0------------0--------|


                                                
-----------------------------------------------|
-----------------------------------------------|
-----------------------------------------------|
--5-----5--7--5-----8--5------------7-8-10-8-7-|
-----6-----------6--------6--8--10-------------|
-----------------------------------------------|


                                                                            
------------------------------------------||----------------|--------------|
-------------------------------10--8------||---3------------|--------------|
---------------------10--8----------------||*--2------------|--------------|
--8--7-----10--8------------5---------11--||*--0------------|--------------|
--------6---------8-----------------------||----------------|--------------|
------------------------------------------||----------------|--------------|


                                                                              
---------------|--------------|---------------|--------------|---------------|
---------------|--------------|---------------|--------------|---------------|
---------------|--------------|---------------|--------------|---------------|
---------------|--------------|---------------|--------------|---------------|
--2------------|--------------|---------------|--------------|---------------|
---------------|--------------|--4------------|--------------|--3------------|


                                                                              
---------------|---------------|--------------|---------------|--------------|
---------------|--3------------|--------------|---------------|--------------|
---------------|--2------------|--------------|---------------|--------------|
---------------|--0------------|--------------|---------------|--------------|
---------------|---------------|--------------|--2------------|--------------|
--4------------|---------------|--------------|---------------|--------------|


                                                                               
---------------|--------------|---------------|---------------||--------------|
---------------|--------------|---------------|---------------||--------------|
---------------|--------------|---------------|--------------*||--------------|
---------------|--------------|---------------|--------------*||--------------|
--1------------|--------------|---------------|---------------||--------------|
---------------|--------------|--0------------|---------------||--------------|


                                                                           
--------------|--------------|--------------|--------------|--------------|
--------------|--------------|--------------|--------------|--------------|
--------------|--------------|--------------|--------------|--------------|
--------------|--------------|--------------|--------------|--------------|
--------------|--------------|--------------|--------------|--------------|
--------------|--------------|--------------|--------------|--------------|


                                                                           
--------------|--------------|--------------|--------------|--------------|
--------------|--------------|--------------|--------------|--------------|
--------------|--------------|--------------|--------------|--------------|
--------------|--------------|--------------|--------------|--------------|
--------------|--------------|--------------|--------------|--------------|
--------------|--------------|--------------|--------------|--------------|


                                                                           
--------------|--------------|--------------|--------------|--------------|
--------------|--------------|--------------|--------------|--------------|
--------------|--------------|--------------|--------------|--------------|
--------------|--------------|--------------|--------------|--------------|
--------------|--------------|--------------|--------------|--------------|
--------------|--------------|--------------|--------------|--------------|


                                                         
--------------|--------------|--------------------------|
--------------|--------------|--------------------------|
--------------|--------------|--------------------------|
--------------|--------------|--------------------------|
--------------|--------------|---------2----------------|
--------------|--------------|--4-------------3----2----|


                                                      
--------------------------|--------------------------|
--------------------------|--------------------------|
--------------------------|--------------------------|
--------------------------|--------------------------|
---------2----------------|---------2----------------|
--4-------------3----2----|--4-------------3----2----|


                                                      
--------------------------|--------------------------|
--------------------------|--------------------------|
--------------------------|--------------------------|
--------------------------|--------------------------|
--3------2------1----0----|---------2----------------|
--------------------------|--4-------------3----2----|


                                                      
--------------------------|--------------------------|
--------------------------|--------------------------|
--------------------------|--------------------------|
--------------------------|--------------------------|
---------2----------------|---------2----------------|
--4-------------3----2----|--4-------------3----2----|


                                          
-----------------------------------------|
-----------------------------------------|
-----------------------------------------|
-----------------------------------------|
--10--10--10--9--9--9--8--8--8--7--7--7--|
--8---8---8---7--7--7--6--6--6--5--5--5--|


                                                                              
--------------------------------------|--------------------------------------|
--------------------------------------|--------------------------------------|
--------------------------------------|--------------------------------------|
--------------------------------------|--------------------------------------|
--6--6--6--9--9--9--5--5--5--4--4--4--|--6--6--6--9--9--9--5--5--5--4--4--4--|
--4--4--4--7--7--7--3--3--3--2--2--2--|--4--4--4--7--7--7--3--3--3--2--2--2--|


                                       
--------------------------------------|
--------------------------------------|
--------------------------------------|
--------------------------------------|
--6--6--6--9--9--9--5--5--5--4--4--4--|
--4--4--4--7--7--7--3--3--3--2--2--2--|


                                          
-----------------------------------------|
-----------------------------------------|
-----------------------------------------|
-----------------------------------------|
--10--10--10--9--9--9--8--8--8--7--7--7--|
--8---8---8---7--7--7--6--6--6--5--5--5--|


                                                                              
--------------------------------------|--------------------------------------|
--------------------------------------|--------------------------------------|
--------------------------------------|--------------------------------------|
--------------------------------------|--------------------------------------|
--6--6--6--9--9--9--5--5--5--4--4--4--|--6--6--6--9--9--9--5--5--5--4--4--4--|
--4--4--4--7--7--7--3--3--3--2--2--2--|--4--4--4--7--7--7--3--3--3--2--2--2--|


                                       
--------------------------------------|
--------------------------------------|
--------------------------------------|
--------------------------------------|
--6--6--6--9--9--9--5--5--5--4--4--4--|
--4--4--4--7--7--7--3--3--3--2--2--2--|


                                                                          
-----------------------------------------|-------------------------------|
-----------------------------------------|-------------------------------|
-----------------------------------------|-------------------------------|
-----------------------------------------|-------------------------------|
--10--10--10--9--9--9--8--8--8--7--7--7--|---------2b--------------------|
--8---8---8---7--7--7--6--6--6--5--5--5--|--4-------------3------2----0--|


                                                                
-------------------------------|-------------------------------|
-------------------------------|-------------------------------|
-------------------------------|-------------------------------|
-------------------------------|-------------------------------|
---------2b--------------------|---------2b--------------------|
--4-------------3------2----0--|--4-------------3------2----0--|


                                                                
-------------------------------|-------------------------------|
-------------------------------|-------------------------------|
-------------------------------|-------------------------------|
-------------------------------|-------------------------------|
---------2b--------------------|---------2b--------------------|
--4-------------3------2----0--|--4-------------3------2----0--|


                                                                
-------------------------------|-------------------------------|
-------------------------------|-------------------------------|
-------------------------------|-------------------------------|
-------------------------------|-------------------------------|
---------2b--------------------|---------2b--------------------|
--4-------------3------2----0--|--4-------------3------2----0--|


                                                                
-------------------------------|-------------------------------|
-------------------------------|-------------------------------|
-------------------------------|-------------------------------|
-------------------------------|---------2b--------------------|
---------2b--------------------|--4-------------3------2-------|
--4-------------3------2----0--|----------------------------0--|


                                                                
-------------------------------|-------------------------------|
-------------------------------|-------------------------------|
-------------------------------|-------------------------------|
---------2b--------------------|---------2b--------------------|
--4-------------3------2-------|--4-------------3------2-------|
----------------------------0--|----------------------------0--|


                                                               
------------------------------|-------------------------------|
------------------------------|-------------------------------|
------------------------------|-------------------------------|
---------2b-------------------|-------------------------------|
--4---------------------------|---------2b--------------------|
----------------2------3------|--4-------------3------2----0--|


                                                                
-------------------------------|-------------------------------|
-------------------------------|-------------------------------|
-------------------------------|-------------------------------|
-------------------------------|-------------------------------|
---------2b--------------------|---------2b--------------------|
--4-------------3------2----0--|--4-------------3------2----0--|


                                                               
-------------------------------|------------------------------|
-------------------------------|------------------------------|
-------------------------------|------------------------------|
-------------------------------|------------------------------|
---------2b--------------------|--8------8------8------8------|
--4-------------3------2----0--|--6------6------6------6------|


                                                               
------------------------------|-------------------------------|
------------------------------|-------------------------------|
------------------------------|-------------------------------|
------------------------------|-------------------------------|
--7------7------4------5------|---------2---------------------|
--5------5------2------3------|--4-------------3------2----0--|


                                                               
-------------------------------|------------------------------|
-------------------------------|------------------------------|
-------------------------------|------------------------------|
-------------------------------|------------------------------|
---------2---------------------|--8------8------8------8------|
--4-------------3------2----0--|--6------6------6------6------|


                                                           
------------------------------|---------------------------|
------------------------------|---------------------------|
------------------------------|---------------------------|
------------------------------|---------------------------|
--9------9------4------5------|---------2-----2--4--5--6--|
--7------7------2------3------|--2-3-4-----4--------------|


                                                                          
----------------------|---------------------------|----------------------|
----------------------|---------------------------|----------------------|
----------------------|---------------------------|----------------------|
----------------------|---------------------------|----------------------|
--2-------------------|---------2-----2--4--5--6--|--2-------------------|
-----4----4----4~-----|--2-3-4-----4--------------|-----4----4----4~-----|


                                                                               
---------------------------|----------------------|---------------------------|
---------------------------|----------------------|---------------------------|
---------------------------|----------------------|---------------------------|
---------------------------|----------------------|---------------------------|
---------2-----2--4--5--6--|--2-------------------|---------2-----2--4--5--6--|
--2-3-4-----4--------------|-----4----4----4~-----|--2-3-4-----4--------------|


                                                               
----------------------|-------------------|-------------------|
----------------------|-------------------|-------------------|
--4-------------------|--2r---------------|----------------2--|
-----6----6----6~-----|-------------------|-------------------|
----------------------|-------------------|-------------------|
----------------------|-------------------|-------------------|


                                                                  
-------------------|-----------------------|---------------------|
-------------------|-----------------------|---------------------|
--2----------------|-----------7----7------|------------9b-------|
-------------------|-----------7----7------|------9h-7-----------|
-------------------|--7h-8h-9--------------|---------------------|
-------------------|-----------------------|---------------------|


                                                                             
--------------------------|-------------------------|-----------------------|
--------------------------|-------------------------|--------------------9b-|
------10--10----10----10--|----10----10--9r---7-----|--9--7-----------x-----|
--------------------------|----------------------9--|--------9~-------------|
--------------------------|-------------------------|-----------------------|
--------------------------|-------------------------|-----------------------|


                                                                                
------7-----------7---------|-----7--7-------------------|-------10b-----------|
---------7--10b------10--7--|--7-------------------------|---------------------|
----------------------------|-----------10h9h7-----9-----|---------------------|
----------------------------|-------------------9-----9--|--x------------------|
----------------------------|----------------------------|---------------------|
----------------------------|----------------------------|---------------------|


                                                                             
----10------7----------|-------------------------|--------------------------|
-----------------12~---|------10-----------------|--------------------------|
-----------------------|----------9--7-----9-----|--7b----------------------|
-----------------------|----------------9-----9--|-----9--7-----------------|
-----------------------|-------------------------|-----------9--8--7--5-----|
-----------------------|-------------------------|-----------------------7--|


                                                              
---------------------|-------------------|-------------------|
---------------------|-------------------|-------------------|
---------------------|-------------------|--7~---------------|
---------------------|-------------------|-------------------|
--5------------------|-------------------|-------------------|
-----5b-----------x--|--0----------------|-------------------|


                                                                 
-------------------7-8-9-10-9r---|----9h7-----7--12------0/-17--|
----------7-8-9-10---------------|--------10---------12---------|
--6-7-8-9------------------------|------------------------------|
---------------------------------|------------------------------|
---------------------------------|------------------------------|
---------------------------------|------------------------------|


                                                                               
--0--16------14--------------|------------------------|-----------------------|
---------17------15-------9r-|----7-------------------|-----------------------|
-----------------------x-----|-------9--7--6r---4-----|-----------------------|
-----------------------------|---------------------7--|--6r---4-----4---------|
-----------------------------|------------------------|----------7-----7~-----|
-----------------------------|------------------------|-----------------------|


                                                   
--------------------------------------------------|
--------------------------------------------------|
--------------------------------------------------|
--------------------------14-15-16-17-14-15-16-17-|
--------------14-15-16-17-------------------------|
--14-15-16-17-------------------------------------|


                                                                            
--------------------------------------14-15-16-17-|--17~-----------14--19--|
--------------------------14-15-16-17-------------|------------------------|
--14-15-16-17-14-15-16-17-------------------------|------------------------|
--------------------------------------------------|------------------------|
--------------------------------------------------|------------------------|
--------------------------------------------------|------------------------|


                                                                    
------14--19--------------------|----------------------------------|
--17b---------17r---15--17--15b-|----------------------------------|
--------------------------------|--16------14----------------------|
--------------------------------|------16------14--12------14------|
--------------------------------|----------------------14------14--|
--------------------------------|----------------------------------|


                                                                      
----------------------|--10-11-10-7------10-11-10-7------12-13-12-10-|
----------------------|-------------10-7------------10-7-------------|
------14b-------------|----------------------------------------------|
--12------------------|----------------------------------------------|
----------------------|----------------------------------------------|
----------------------|----------------------------------------------|


                                                   
--------13-14-13-12-------17-19-17-14-------19-22-|
--12-10-------------15-12-------------17-15-------|
--------------------------------------------------|
--------------------------------------------------|
--------------------------------------------------|
--------------------------------------------------|


                                                   
--19-17-------22-24-22-19-------------------------|
--------19-17-------------22-19-22-24-22-19-------|
--------------------------------------------21-19-|
--------------------------------------------------|
--------------------------------------------------|
--------------------------------------------------|


                                               
----------------------------------------------|
----------------------------------------------|
--21-23-21-19---------------------------------|
--------------21-19-21-24-21-19---------------|
--------------------------------21-19---------|
--------------------------------------22-19---|


                                                   
-----------19-19-------------------19-19----------|
--------21-------21-------------21-------21-------|
-----22-------------22-------22-------------22----|
--23-------------------23-23-------------------23-|
--------------------------------------------------|
--------------------------------------------------|


                                                   
-----------19-19-------------------19-19----------|
--------21-------21-------------21-------21-------|
-----22-------------22-------22-------------22----|
--23-------------------23-23-------------------23-|
--------------------------------------------------|
--------------------------------------------------|


                                                   
-----------18-18-------------------18-18----------|
--------20-------20-------------20-------20-------|
-----21-------------21-------21-------------21----|
--22-------------------22-22-------------------22-|
--------------------------------------------------|
--------------------------------------------------|


                                                                            
-----------15-15-------------------16-16----------|------------------------|
--------17-------17-------------18-------18-------|------------------5-----|
-----18-------------18-------19-------------19----|--16/-------2/-4-----4--|
--19-------------------19-20-------------------20-|------------------------|
--------------------------------------------------|------------------------|
--------------------------------------------------|------------------------|


                                                                            
-------0---------------|------------------------|--------------------------|
--5-------3b-----------|--3---------------------|--------------------------|
-----------------4-----|-----4~-----4--2--------|--------------------------|
--------------------4--|------------------4--3--|--2h3h2--------2----------|
-----------------------|------------------------|---------5--2-----5--2----|
-----------------------|------------------------|--------------------------|


                                                             
-------------------------------|--------16----------21/-----|
-----------------------14------|----------------------------|
---------------13----------11--|--13--------16--18----------|
-------11----------11----------|----------------------------|
-----------11------------------|----------------------------|
--9----------------------------|----------------------------|


                                                                
--------------------------------|------------------------------|
--15----15--15--15--15--15--15--|--17----17--18----18--18--18--|
--17b-----------17b-------------|--19b-------20b-------20b-----|
--------------------------------|------------------------------|
--------------------------------|------------------------------|
--------------------------------|------------------------------|


                                                                  
--------------------|--------------|--------------|--------------|
--22----------------|--------------|--------------|--------------|
--21b---------------|--------------|--------------|--------------|
--------------------|--------------|--------------|--------------|
--------------------|--------------|--------------|--------------|
--------------------|--------------|--------------|--------------|


                                                                             
--------------|--------------|--------------|--------------||---------------|
--------------|--------------|--------------|--------------||---------------|
--------------|--------------|--------------|--------------||*--------------|
--------------|--------------|--------------|--------------||*--------------|
--------------|--------------|--------------|--------------||---------------|
--------------|--------------|--------------|--------------||---------------|


                                             3x                               
--------------|--------------|---------------||---------------|--------------|
--------------|--------------|---------------||---------------|--------------|
--------------|--------------|--------------*||*--------------|--------------|
--------------|--------------|--------------*||*--------------|--------------|
--------------|--------------|---------------||---------------|--------------|
--------------|--------------|---------------||---------------|--------------|


                                                                              
--------------|---------------||---------------|--------------|--------------|
--------------|---------------||---------------|--------------|--------------|
--------------|--------------*||*--------------|--------------|--------------|
--------------|--------------*||*--------------|--------------|--------------|
--------------|---------------||---------------|--------------|--------------|
--------------|---------------||---------------|--------------|--------------|


                                                                    
---------------||--4---------------4--|----------------------------|
---------------||-----------7---------|--7-4---------4-------------|
--------------*||---------------------|------6--4--6---6-4---------|
--------------*||---------------------|--------------------6--4----|
---------------||---------------------|----------------------------|
---------------||---------------------|----------------------------|


                                                                        
-----------------------------7-|--6------------------------------------|
-------------------------6-8---|-------12--11--9--8--12----------------|
----------3-4-7-6--6-7-9-------|-------------------------11--10--8--9--|
----4-5-6----------------------|---------------------------------------|
-------------------------------|---------------------------------------|
-------------------------------|---------------------------------------|


                                                    
-------------10----9h10h9h10h9h10h9h10-----8h9h8h9h|
-------11------------------------------10----------|
--7------------------------------------------------|
---------------------------------------------------|
---------------------------------------------------|
---------------------------------------------------|


                                                  
--8h9h8h9h8h9h8h9h8h9h8h9h8h9h8h9----------------|
----------------------------------------6--9--8--|
-------------------------------------7-----------|
----------------------------------8--------------|
-------------------------------------------------|
-------------------------------------------------|


                                     
--------6--10--9--------10----14----|
-----7------------11----------------|
--7---------------------------------|
------------------------------------|
------------------------------------|
------------------------------------|


                                                                         
--13--------12h13h12h13h12h13h12h13h12h13h12h13h12h13h12h13h12h13h12h13-|
------14----------------------------------------------------------------|


                                                                         
---------------------------------------|--------------------------------|
--15--14-13-12--15--11--10--12-11-10-9-|------12------------------------|
---------------------------------------|--12------11--10------7----8----|
---------------------------------------|--------------------------------|
---------------------------------------|--------------------------------|
---------------------------------------|--------------------------------|


                                                                    
--10--6--------------15-12---|-------------------------------------|
-----------------------------|-------------------------------------|
-------------12-13-----------|----18-14----------------------------|
-----------------------------|----------15-14----------6--6--5--5--|
-----------------------------|-------------------7--7--------------|
-----------------------------|-------------------------------------|


                                       
--------------------------------------|
--------------6--6--5--5--9--9--8--8--|
--6--6--5--5--------------------------|
--------------------------------------|
--------------------------------------|
--------------------------------------|


                                               
--9--9--8--8--13--13--12--14--15--16--17--18--|
----------------------------------------------|
----------------------------------------------|
----------------------------------------------|
----------------------------------------------|
----------------------------------------------|


                                                   
--19-21-19-21-19-21-19-21-19-21-19-21-19-21-19-21-|
--------------------------------------------------|
--------------------------------------------------|
--------------------------------------------------|
--------------------------------------------------|
--------------------------------------------------|


                                                                          
--19-21-19-21-19-21-19-21-21h19~------|------|------|------|------|------|
--------------------------------------|------|------|------|------|------|
--------------------------------------|------|------|------|------|------|
--------------------------------------|------|------|------|------|------|
--------------------------------------|------|------|------|------|------|
--------------------------------------|------|------|------|------|------|


                                                      
------|------|------|--------------------------------|
------|------|------|--------------------------------|
------|------|------|--------------------------------|
------|------|------|--------------------------------|
------|------|------|----------16--------------------|
------|------|------|--16--19------16--19~---16--19--|


                                                              
------------------------------|------------------------------|
------------------------------|------------------------------|
------------------------------|------------------------------|
------------------16--18~-----|------------------------------|
--16--17--18------------------|----------16------------------|
--------------16--------------|--16--19------16--19~---16----|


                                                                  
--------------------------------|--------------------------------|
--------------------------------|--------------------------------|
--16----------------------------|--------------------------------|
--------18----16----------------|--------------------------------|
------------------18--16--------|----------16--------------------|
--------------------------19----|--16--19------16--19~---16--19--|


                                                                    
------------------------------|------------------------------------|
------------------------------|------------------------------------|
------------------------------|--16--------------------------------|
------------------16--18~-----|--------18-16-----18--18--16--------|
--16--17--18------------------|--------------18-------------18-16--|
--------------16--------------|------------------------------------|


                                                                      
------------------------------|--------------------------------------|
------------------------------|--------------------------------------|
------------------------------|--8-9-8-6-9-11-9-8-------------8-9-11-|
------------------------------|-------------------11-9-8-9-11--------|
------16--17--18--14----------|--------------------------------------|
--19------------------14~-----|--------------------------------------|


                                             
--------------------------------------------|
--------------------------------------------|
--9-11-9-8-11-13-11-9---------------9-11-13-|
----------------------13-11-9-11-13---------|
--------------------------------------------|
--------------------------------------------|


                                                  
-------------------------------------------------|
-------------12-15-12-11-------12-11-------14-11-|
--11-13-11-9-------------13-11-------13-11-------|
-------------------------------------------------|
-------------------------------------------------|
-------------------------------------------------|


                                                                        
-----------------------11-12-14-12-11-16-18-16-14-|--16~---------------|
--12-11-------11-12-14----------------------------|--------------------|
--------13-11-------------------------------------|--------------------|
--------------------------------------------------|--------------------|
--------------------------------------------------|--------------------|
--------------------------------------------------|--------------------|


                                               
------------------|------------------|--------|
------------------|------------------|--------|
------------------|------------------|--------|
------------------|------------------|--------|
------------------|------------------|--------|
------------------|------------------|--------|


                                       
--------------------------------------|
--------------------------------------|
--8-9-8-6-9-11-9-8-------------8-9-11-|
-------------------11-9-8-9-11--------|
--------------------------------------|
--------------------------------------|


                                             
--------------------------------------------|
--------------------------------------------|
--9-11-9-8-11-13-11-9---------------9-11-13-|
----------------------13-11-9-11-13---------|
--------------------------------------------|
--------------------------------------------|


                                                  
-------------------------------------------------|
-------------12-15-12-11-------12-11-------14-11-|
--11-13-11-9-------------13-11-------13-11-------|
-------------------------------------------------|
-------------------------------------------------|
-------------------------------------------------|


                                                   
-----------------------11-12-14-12-11-16-18-16-14-|
--12-11-------1
            
Submit corrections


        Beyond This Life lessons Hard to play? Try these video lessons and learn fast Beyond This Life lessons
        
↑ Back to top | Tablatures and chords for acoustic guitar and electric guitar, ukulele, drums are parodies/interpretations of the original songs. You may use it for private study, scholarship, research or language learning purposes only