» » »

Dream Theater - A Rite Of Passage Tabs

Artists:  A B C D E F G H I J K L M N O P Q R S T U V W X Y Z # 

A Rite Of Passage Tabs

(ver. 3) Click to play this song!
Dream Theater
 Rating:
4/5 (4 votes)

 A Rite Of Passage lessons Tabs too difficult? Try these video lessons and learn fast
 
                (Intro)
-------------------------------------------------------------------------------
                             A RITE OF PASSAGE - Dream Theater
-------------------------------------------------------------------------------

I tabbed this by ear, and I thought it sounded correct. If you see something wrong 

Tuning: Dropped D

Clean
e|--------------------------------------------------|
B|--------------------------------------------------|
G|--------------------------------------------------|
D|-------------------------------------------10-----|
A|----9h10p9---9h10p9----------9h10p9------9----9---|
D|--0--------0--------12-10-12--------0-10----------|

e|--------------------------------------------------|
B|--------------------------------------------------|
G|--------------------------------------------------|
D|--------------------------------------------------|
A|----9h10p9---9h10p9---------9h10p9----------------|
D|--0--------0--------12-10-0--------0-5-6-1--------|

e|--------------------------------------------------|
B|--------------------------------------------------|
G|--------------------------------------------------|
D|------------------------------------------10------|
A|----9h10p9---9h10p9---------9h10p9------9---------|
D|--0--------0--------12-10-0--------0-10-----------|
                                         Distortion
e|--------------------------------------------------|
B|--------------------------------------------------|
G|--------------------------------------------------|
D|---------------------------------------6-6-1------|
A|----9h10p9---9h10p9---------9h10p9-----6-6-1------|
D|--0--------0--------12-10-0--------0---6-6-1------|

e|--------------------------------------------------|
B|--------------------------------------------------|
G|--------------------------------------------------|
D|--0---------------------------0----------------10-|
A|--0-9h10p9-0-0--9h10p9--------0-9h10p9-0-0----9---|
D|--0--------0-0---------12-10--0--------0-0--10----|
             . .                         . .
e|--------------------------------------------------|
B|--------------------------------------------------|
G|--------------------------------------------------|
D|--0--------------------------------------6-6-1----|
A|--0-9h10p9-0-0--9h10p9--------0-0-9h10p9-6-6-1----|
D|--0--------0-0---------12-10--0-0--------6-6-1----|
             . .                . .        . .
e|--------------------------------------------------|
B|--------------------------------------------------|
G|--------------------------------------------------|
D|--0---------------------------0----------------10-|
A|--0-9h10p9-0-0--9h10p9--------0-9h10p9-0-0----9---|
D|--0--------0-0---------12-10--0--------0-0--10----|
             . .                         . .
e|-----------------------------------------------------------|
B|-----------------------------------------------------------|
G|-----------------------------------------------------------|
D|--0-------------------------------3------5------6------5---|
A|--0-9h10p9-0-0--9h10p9--------0-0-3--0-0-5--0-0-6--0-0-5---|
D|--0--------0-0---------12-10--0-0-3--0-0-5--0-0-6--0-0-5---|
             . .                . .    . .    . .    . .

| /  slide up
| \  slide down
| h  hammer-on
| p  pull-off
| ~  vibrato
| +  harmonic
| x  Mute note
===============================================================================
            
Submit corrections


        A Rite Of Passage lessons Hard to play? Try these video lessons and learn fast A Rite Of Passage lessons
        
↑ Back to top | Tablatures and chords for acoustic guitar and electric guitar, ukulele, drums are parodies/interpretations of the original songs. You may use it for private study, scholarship, research or language learning purposes only