» » »

Dream Theater - A Change Of Seasons Tabs

Artists:  A B C D E F G H I J K L M N O P Q R S T U V W X Y Z # 

A Change Of Seasons Tabs

(ver. 2) Click to play this song!
Dream Theater
 Rating:
4/5 (4 votes)

 A Change Of Seasons lessons Tabs too difficult? Try these video lessons and learn fast
 
                A Change of Seasons
 
 
I. The Crimson Sunrise
 
 
     N.C.
     Gtr.1(Acous.Gtr.)
E||----------------------------------|---------------------------------|
B||----------------------------------|---------------------------------|
G||4---------------------------------|---------------------------------|
D||4-----2-5-----2-4-------2---------|-----0-------0-------2-0---------|
A||----2-------2-------2^5-----2-5/7-|---7---7---5---5---2---------0---|
E||----------------------------------|-5-------3-------0---------2-----|
B||--0-------0-------0-------0-------|-------------------------3-----3-|
 
 
 
 
   
   Gtr.1
E|---------------------------------|---------------------------------|
B|---------------------------------|---------------------------------|
G|---------------------------------|---------------------------------|
D|-----2-5-----2-4-------2---------|-----0-------0-------2-----------|
A|---2-------2-------2^5-----2-5/7-|---7---7---5---5---2---2-----3---|
E|---------------------------------|-5-------3-------0---------3---3-|
B|-0-------0-------0-------0-------|-------------------------1-------|
 
 
 
 
 
   Gtr.1
E|---------------------------------|---------------------------------|
B|---------------------------------|---------------------------------|
G|---------------------------------|---------------------------------|
D|-----2-5-----2-4-------2---------|-----0-------0-------2-0---------|
A|---2-------2-------2^5-----2-5/7-|---7---7---5---5---2---------0---|
E|---------------------------------|-5-------3-------0---------2-----|
B|-0-------0-------0-------0-------|-------------------------3-----3-|
 
 
 
 
   
   Gtr.1
E|---------------------------------|---------------------------------|
B|---------------------------------|---------------------------------|
G|---------------------------------|---------------------------------|
D|-----2-5-----2-4-------2---------|-----0-------0-------2-----------|
A|---2-------2-------2^5-----2-5/7-|---7---7---5---5---2---3-----3---|
E|---------------------------------|-5-------3-------0---------3---3-|
B|-0-------0-------0-------0-------|-------------------------1-------|
 
 
 
 
 
   Gtr.1
E|---------0---------------0-------|--------------------------------|
B|-------0-----0---------3-----3---|-------------2------------------|
G|-----2---------------2-----------|-----4----------------------2---|
D|---4---------------0-------------|---2---2---4--------4-----0---0-|
A|---------------------------------|-0-------2--------2---2---------|
E|-2---------2---2-3---------3---3-|----------------0-------3-------|
B|---------------------------------|--------------------------------|
 
 
 
 
 
   Gtr.1
E|---------0---------------0-------|--------------------------------|
B|-------0-----0---------3-----3---|-------------2------------------|
G|-----2---------------2-----------|-----4----------------------2---|
D|---4---------------0-------------|---2---2---4--------4-----0---0-|
A|---------------------------------|-0-------2--------2---2---------|
E|-2---------2---2-3---------3---3-|----------------0-------3-------|
B|---------------------------------|--------------------------------|
 
 
 
 
 
    Gtr.1
E|------------------------------|---------------------------|
B|------------------------------|---------------------------|
G|7-------------0---------------|-------------0-------------|
D|8---------4-----------7---5\4-|---------4--------------2--|
A|----2-5-----------5/7---------|---2-5-------------0-5--2--|
E|------------------------------|---------------------------|
B|--0-----0---0---0-------0-----|-0-----0---0---0-3---------|
 
 
 
 
 
   Gtr.1
E|-----------------------------|----------------------------|
B|-----------------------------|----------------------------|
G|-------------0---------------|-------------0--------------|
D|---------4-----------7---5\4-|-2-------4---------------2--|
A|---2-5-----------5/7---------|---2-5-------------0-5---2--|
E|-----------------------------|----------------------------|
B|-0-----0---0---0-------0-----|-------0---0---0-3-----3----|
 
 
 
 
    Bm
    Gtr.2(Elec.Gtr.)
   P.M.      P.M.     P.M.        P.M.     P.M.
E|---------------------------|--------------------|
B|---------------------------|--------------------|
G|4--------------------------|3-------------------|
D|4--------------------------|4-------------------|
A|-----9--10-----7--9-----5--|--7-----4--5-----2--|
E|---------------------------|--------------------|
B|--0---------0--------0-----|-----0--------0-----|
 |  Gtr.3(Elec.Gtr.)
 | P.M.      P.M.     P.M.        P.M.     P.M.
E|---------------------------|--------------------|
B|---------------------------|--------------------|
G|4--------------------------|3-------------------|
D|4--------------------------|4-------------------|
A|-----9--10-----7--9-----5--|--7-----4--5-----2--|
E|---------------------------|--------------------|
B|--0---------0--------0-----|-----0--------0-----|
 
 
 
 
 
    Gtr.2
   P.M.      P.M.     P.M.        P.M.    
E|---------------------------|--------------------|
B|---------------------------|--------------------|
G|4--------------------------|3-------------------|
D|4--------------------------|4-------------3-----|
A|-----9--10-----7--9-----5--|--7-----4--5--------|
E|---------------------------|-----------------5--|
B|--0---------0--------0-----|-----0--------------|
 |  Gtr.3
 | P.M.      P.M.     P.M.        P.M.    
E|---------------------------|--------------------|
B|---------------------------|--------------------|
G|4--------------------------|3-------------------|
D|4--------------------------|4-------------3-----|
A|-----9--10-----7--9-----5--|--7-----4--5--------|
E|---------------------------|-----------------5--|
B|--0---------0--------0-----|-----0--------------|
 
 
 
 
 
    Gtr.2
   P.M.      P.M.     P.M.        P.M.     P.M.
E|---------------------------|--------------------|
B|---------------------------|--------------------|
G|4--------------------------|3-------------------|
D|4--------------------------|4-------------------|
A|-----9--10-----7--9-----5--|--7-----4--5-----2--|
E|---------------------------|--------------------|
B|--0---------0--------0-----|-----0--------0-----|
 |  Gtr.3
 | P.M.      P.M.     P.M.        P.M.     P.M.
E|---------------------------|--------------------|
B|---------------------------|--------------------|
G|4--------------------------|3-------------------|
D|4--------------------------|4-------------------|
A|-----9--10-----7--9-----5--|--7-----4--5-----2--|
E|---------------------------|--------------------|
B|--0---------0--------0-----|-----0--------0-----|
 
 
 
 
 
    Gtr.2
   P.M.      P.M.     P.M.        P.M.    
E|---------------------------|--------------------|
B|---------------------------|--------------------|
G|4--------------------------|3-------------------|
D|4--------------------------|4-------------3-----|
A|-----9--10-----7--9-----5--|--7-----4--5--------|
E|---------------------------|-----------------5--|
B|--0---------0--------0-----|-----0--------------|
 |  Gtr.3
 | P.M.      P.M.     P.M.        P.M.    
E|---------------------------|--------------------|
B|---------------------------|--------------------|
G|4--------------------------|3-------------------|
D|4--------------------------|4-------------3-----|
A|-----9--10-----7--9-----5--|--7-----4--5--------|
E|---------------------------|-----------------5--|
B|--0---------0--------0-----|-----0--------------|
 
 
 
 
 
    Gtr.2
            P.M.     P.M.       P.M.     P.M.
E|--------------------------|-----------------------|
B|--------------------------|-----------------------|
G|4-------------------------|-----------------------|
D|4-------------------------|-----------------------|
A|-----4--5-----2--4--------|-----------------------|
E|--2--2--3-----0--2-----5--|-7-----4--5-----5------|
B|--0--------0--------0--3--|-5--0--2--3--0--3------|
 |  Gtr.3
 |          P.M.     P.M.       P.M.     P.M.
E|--------------------------|-----------------------|
B|--------------------------|-----------------------|
G|4-------------------------|-----------------------|
D|4-------------------------|-----------------------|
A|-----4--5-----2--4--------|-----------------------|
E|--2--2--3-----0--2-----5--|-7-----4--5-----5------|
B|--0--------0--------0--3--|-5--0--2--3--0--3------|
 
 
 
 
 
   Gtr.2
           P.M.     P.M.        P.M.
E|-------------------------|-------------------|
B|-------------------------|-------------------|
G|-------------------------|3------------------|
D|-------------------------|4------------------|
A|----4--5-----2--4--------|--------------3----|
E|-2--2--3-----0--2-----5--|--7-----4--5--1----|
B|-0--------0--------0--3--|--5--0--2--3-------|
 | Gtr.3
 |         P.M.     P.M.        P.M.
E|-------------------------|-------------------|
B|-------------------------|-------------------|
G|-------------------------|3------------------|
D|-------------------------|4------------------|
A|----4--5-----2--4--------|--------------3----|
E|-2--2--3-----0--2-----5--|--7-----4--5--1----|
B|-0--------0--------0--3--|--5--0--2--3-------|
 
 
 
 
 
    Gtr.2
            P.M.     P.M.       P.M.     P.M.
E|--------------------------|-----------------------|
B|--------------------------|-----------------------|
G|4-------------------------|-----------------------|
D|4-------------------------|-----------------------|
A|-----4--5-----2--4--------|-----------------------|
E|--2--2--3-----0--2-----5--|-7-----4--5-----5------|
B|--0--------0--------0--3--|-5--0--2--3--0--3------|
 |  Gtr.3
 |          P.M.     P.M.       P.M.     P.M.
E|--------------------------|-----------------------|
B|--------------------------|-----------------------|
G|4-------------------------|-----------------------|
D|4-------------------------|-----------------------|
A|-----4--5-----2--4--------|-----------------------|
E|--2--2--3-----0--2-----5--|-7-----4--5-----5------|
B|--0--------0--------0--3--|-5--0--2--3--0--3------|
 
 
 
 
 
   Gtr.2
           P.M.     P.M.        P.M.
E|-------------------------|-------------------|
B|-------------------------|-------------------|
G|-------------------------|3------------------|
D|-------------------------|4------------------|
A|----4--5-----2--4--------|--------------3----|
E|-2--2--3-----0--2-----5--|--7-----4--5--1----|
B|-0--------0--------0--3--|--5--0--2--3-------|
 | Gtr.3
 |         P.M.     P.M.        P.M.
E|-------------------------|-------------------|
B|-------------------------|-------------------|
G|-------------------------|3------------------|
D|-------------------------|4------------------|
A|----4--5-----2--4--------|--------------3----|
E|-2--2--3-----0--2-----5--|--7-----4--5--1----|
B|-0--------0--------0--3--|--5--0--2--3-------|
 
 
 
 
 
    Gtr.2
E|--------------------------|--------------------|
B|--------------------------|--------------------|
G|4-------------------------|3-------------------|
D|4-------------------------|4-------------------|
A|--------------------------|--------------------|
E|-----2--3-----0--2--------|--------------------|
B|--0--------0--------0--3--|--5--0--2--3--0--3--| 
 |  Gtr.3
E|--------------------------|--------------------|
B|--------------------------|--------------------|
G|4-------------------------|3-------------------|
D|4-------------------------|4-------------------|
A|--------------------------|--------------------|
E|-----2--3-----0--2--------|--------------------|
B|--0--------0--------0--3--|--5--0--2--3--0--3--| 
 
 
 
 
 
    Gtr.2
                                           ~~~~~
E|--------------------------|-------------------|
B|--------------------------|-------------------|
G|4-------------------------|3------------------|
D|4-------------------------|4------------------|
A|--------------------------|-------------------|
E|-----2--3-----0--2--------|--------------1----|
B|--0--------0--------0--3--|--5--0--2--3-------| 
 |  Gtr.3
 |                                         ~~~~~
E|--------------------------|-------------------|
B|--------------------------|-------------------|
G|4-------------------------|3------------------|
D|4-------------------------|4------------------|
A|--------------------------|-------------------|
E|-----2--3-----0--2--------|--------------1----|
B|--0--------0--------0--3--|--5--0--2--3-------| 
 
 
 
 
 
    Gtr.2
E|--------------------------|--------------------|
B|--------------------------|--------------------|
G|4-------------------------|3-------------------|
D|4-------------------------|4-------------------|
A|--------------------------|--------------------|
E|-----2--3-----0--2--------|--------------------|
B|--0--------0--------0--3--|--5--0--2--3--0--3--| 
 |  Gtr.3
E|--------------------------|--------------------|
B|--------------------------|--------------------|
G|4-------------------------|3-------------------|
D|4-------------------------|4-------------------|
A|--------------------------|--------------------|
E|-----2--3-----0--2--------|--------------------|
B|--0--------0--------0--3--|--5--0--2--3--0--3--| 
 
 
 
 
 
    Gtr.2
                                           ~~~~~
E|--------------------------|-------------------|
B|--------------------------|-------------------|
G|4-------------------------|3------------------|
D|4-------------------------|4------------------|
A|--------------------------|-------------------|
E|-----2--3-----0--2--------|--------------1----|
B|--0--------0--------0--3--|--5--0--2--3-------| 
 |  Gtr.3
 |                                         ~~~~~
E|--------------------------|-------------------|
B|--------------------------|-------------------|
G|4-------------------------|3------------------|
D|4-------------------------|4------------------|
A|--------------------------|-------------------|
E|-----2--3-----0--2--------|--------------1----|
B|--0--------0--------0--3--|--5--0--2--3-------|
 
 
 
 
 
    Gtr.2
E|--------------------|-------------|--------------------|-------------|
B|--------------------|-------------|--------------------|-------------|
G|4-------------------|3------------|4-------------------|3------------|
D|4-------------------|4------------|4-------------------|4------------|
A|--------------------|-------------|--------------------|-------------|
E|--2--2--------------|-------------|--2--2--------------|-------------|
B|--0--0--------------|-------------|--0--0--------------|-------------|
 |  Gtr.3
E|--------------------|-------------|--------------------|-------------|
B|--------------------|-------------|--------------------|-------------|
G|4-------------------|3------------|4-------------------|3------------|
D|4-------------------|4------------|4-------------------|4------------|
A|--------------------|-------------|--------------------|-------------|
E|--2--2--------------|-------------|--2--2--------------|-------------|
B|--0--0--------------|-------------|--0--0--------------|-------------|
 
 
 
 
 
    Gtr.4
E|-----------2------0--|-(0)---5---------|-----------2------0--|-(0)-------------|
B|--0------------------|------------3----|--0------------------|-------3---------|
G|4--------------------|3----------------|4--------------------|3-----------2----|
D|4--------------------|4----------------|4--------------------|4----------------|
A|---------------------|-----------------|---------------------|-----------------|
E|---------------------|-----------------|---------------------|-----------------|
B|---------------------|-----------------|---------------------|-----------------|
 
 
 
 
 
    Gtr.4
E|-----------2------0--|-(0)---5---------|-----------2------0--|-(0)-------------|
B|--0------------------|------------3----|--0------------------|-------3---------|
G|4--------------------|3----------------|4--------------------|3-----------2----|
D|4--------------------|4----------------|4--------------------|4----------------|
A|---------------------|-----------------|---------------------|-----------------|
E|---------------------|-----------------|---------------------|-----------------|
B|---------------------|-----------------|---------------------|-----------------|
 
 
 
 
 
    Gtr.4
E|-------2-----------|-0--------------|------0-----------|-0--------------|
B|--0---------0------|----------------|-----------0------|----------------|
G|7------------------|----------------|-2----------------|----------------|
D|8------------------|----------------|------------------|----------------|
A|-------------------|----------------|------------------|----------------|
E|-------------------|----------------|------------------|----------------|
B|-------------------|----------------|------------------|----------------|
 
 
 
 
 
    Gtr.4
E|------------------|-0--------------|------------------|-5--------------|
B|-----------0------|----------------|-----------8------|----------------|
G|------4-----------|----------------|------7-----------|----------------|
D|-2----------------|----------------|-5----------------|----------------|
A|------------------|----------------|------------------|----------------|
E|------------------|----------------|------------------|----------------|
B|------------------|----------------|------------------|----------------|
 
 
 
 
 
   Gtr.2
           P.M.      P.M.  ~~~~    P.M.
E|-----------------------|----------------------|
B|-----------------------|----------------------|
G|-----------------------|----------------------|
D|-----------------------|----------------------|
A|-----------------------|-------------5--------|
E|------7--x-x-5--7--x-x-|-5----7--x-x----7--5--|
B|-0---------------------|----------------------|
 | Gtr.3
 |         P.M.      P.M.  ~~~~    P.M.
E|-----------------------|----------------------|
B|-----------------------|----------------------|
G|-----------------------|----------------------|
D|-----------------------|----------------------|
A|-----------------------|-------------5--------|
E|------7--x-x-5--7--x-x-|-5----7--x-x----7--5--|
B|-0---------------------|----------------------|
 
 
 
 
 
   Gtr.2
           P.M.      P.M.  ~~~~    
E|-----------------------|---------------------|
B|-----------------------|---------------------|
G|-----------------------|---------------------|
D|-----------------------|---------------------|
A|-----------------------|---------------------|
E|------7--x-x-5--7--x-x-|-5----7-----5--7--9--|
B|-0---------------------|---------0--3--5--7--|
 | Gtr.3
 |         P.M.      P.M.  ~~~~    
E|-----------------------|---------------------|
B|-----------------------|---------------------|
G|-----------------------|---------------------|
D|-----------------------|---------------------|
A|-----------------------|---------------------|
E|------7--x-x-5--7--x-x-|-5----7-----5--7--9--|
B|-0---------------------|---------0--3--5--7--|
 
 
 
 
 
   Gtr.2
           P.M.      P.M.  ~~~~    P.M.
E|-----------------------|-----------------------|
B|-----------------------|-----------------------|
G|-----------------------|-----------------------|
D|-----------------------|-----------------------|
A|-----------------------|-------------5^7-5-----|
E|------7--x-x-5--7--x-x-|-5----7--x-x--------7--|
B|-0---------------------|-----------------------|
 | Gtr.3
 |         P.M.      P.M.  ~~~~    P.M.
E|-----------------------|-----------------------|
B|-----------------------|-----------------------|
G|-----------------------|-----------------------|
D|-----------------------|-----------------------|
A|-----------------------|-------------5^7-5-----|
E|------7--x-x-5--7--x-x-|-5----7--x-x--------7--|
B|-0---------------------|-----------------------|
 
 
 
 
 
   Gtr.2
           P.M.      P.M.  ~~~~    
E|-----------------------|---------------------|
B|-----------------------|---------------------|
G|-----------------------|---------------------|
D|-----------------------|---------------------|
A|-----------------------|---------------------|
E|------7--x-x-5--7--x-x-|-5----7-----5--7--9--|
B|-0---------------------|---------0--3--5--7--|
 | Gtr.3
 |         P.M.      P.M.  ~~~~    
E|-----------------------|---------------------|
B|-----------------------|---------------------|
G|-----------------------|---------------------|
D|-----------------------|---------------------|
A|-----------------------|---------------------|
E|------7--x-x-5--7--x-x-|-5----7-----5--7--9--|
B|-0---------------------|---------0--3--5--7--|
 
 
 
 
    C#m
    Gtr.2
      P.M.  P.M.      P.M.     P.M.
E|---------------------------|-----------------------------|
B|---------------------------|-----------------------------|
G|4--------------------------|9----------------------------|
D|4--------------------------|8----------------------------|
A|---------------------------|--------------------4--7--5--|
E|--------2-----4--2-2----5--|-----4-----4--5--7-----------|
B|--2--2-----2---------2-----|--2-----5--------------------|
 |  Gtr.3
 |    P.M.  P.M.      P.M.     P.M.
E|---------------------------|-----------------------------|
B|---------------------------|-----------------------------|
G|4--------------------------|9----------------------------|
D|4--------------------------|8----------------------------|
A|---------------------------|--------------------4--7--5--|
E|--------2-----4--2-2----5--|-----4-----4--5--7-----------|
B|--2--2-----2---------2-----|--2-----5--------------------|
 
 
 
 
 
    Gtr.2
      P.M.  P.M.      P.M.     
E|---------------------------|-----------------------------|
B|---------------------------|-----------------------------|
G|4--------------------------|9----------------------------|
D|4--------------------------|8----6-----------------------|
A|---------------------------|--4-----------------4--7--5--|
E|--------2-----4--2-2----5--|-----------4--5--7-----------|
B|--2--2-----2---------2-----|--------5--------------------|
 |  Gtr.3
 |    P.M.  P.M.      P.M.     
E|---------------------------|-----------------------------|
B|---------------------------|-----------------------------|
G|4--------------------------|9----------------------------|
D|4--------------------------|8----6-----------------------|
A|---------------------------|--4-----------------4--7--5--|
E|--------2-----4--2-2----5--|-----------4--5--7-----------|
B|--2--2-----2---------2-----|--------5--------------------|
 
 
 
 
 
    Gtr.2
      P.M.  P.M.      P.M.
E|---------------------------|-----------------------------|
B|---------------------------|-----------------------------|
G|4--------------------------|9----------------------------|
D|4-------4-----6--4-4----7--|8----6-----------------------|
A|--4--4-----4---------4-----|--4-----7-----------4--7--5--|
E|---------------------------|-----------4--5--7-----------|
B|---------------------------|-----------------------------|
 |  Gtr.3
 |    P.M.  P.M.      P.M.
E|---------------------------|-----------------------------|
B|---------------------------|-----------------------------|
G|4--------------------------|9----------------------------|
D|4-------4-----6--4-4----7--|8----6-----------------------|
A|--4--4-----4---------4-----|--4-----7-----------4--7--5--|
E|---------------------------|-----------4--5--7-----------|
B|---------------------------|-----------------------------|
 
 
 
 
    Em
    Gtr.2
      P.M.  P.M.      P.M.      P.M.
E|----------------------------|--------------------------------|
B|----------------------------|--------------------------------|
G|4---------------------------|9-------------------------------|
D|4-------7-----9--7-7----10--|8----9--------------------------|
A|--7--7-----7---------7------|--7-----10------------7--10--8--|
E|----------------------------|------------7--8--10------------|
B|----------------------------|--------------------------------|
 |  Gtr.3
 |    P.M.  P.M.      P.M.      P.M.
E|----------------------------|--------------------------------|
B|----------------------------|--------------------------------|
G|4---------------------------|9-------------------------------|
D|4-------7-----9--7-7----10--|8----9--------------------------|
A|--7--7-----7---------7------|--7-----10------------7--10--8--|
E|----------------------------|------------7--8--10------------|
B|----------------------------|--------------------------------|
 
 
 
 
 
    Gtr.2
      P.M.  P.M.     
E|---------------------------|-------------------------------|
B|---------------------------|-------------------------------|
G|4--------------------------|9------------------------------|
D|4-------7-----9--7-7-------|8----9-------------------------|
A|--7--7-----7---------7-----|--7------------------7--10--8--|
E|------------------------8--|-----------7--8--10------------|
B|---------------------------|--------8----------------------|
 |  Gtr.3
 |    P.M.  P.M.      
E|---------------------------|-------------------------------|
B|---------------------------|-------------------------------|
G|4--------------------------|9------------------------------|
D|4-------7-----9--7-7-------|8----9-------------------------|
A|--7--7-----7---------7-----|--7------------------7--10--8--|
E|------------------------8--|-----------7--8--10------------|
B|---------------------------|--------8----------------------|
 
 
 
 
 
    Gtr.2
      P.M.  P.M.      P.M.     
E|---------------------------|-----------------------------|
B|---------------------------|-----------------------------|
G|4--------------------------|9----------------------------|
D|4--------------------------|8-------------------2--------|
A|---------------------------|-----------2--3--5-----------|
E|--------5-----7--5-5----8--|-----7--3--------------3--1--|
B|--5--5-----5---------5-----|--5--------------------------|
 |  Gtr.3
 |    P.M.  P.M.      P.M.     
E|---------------------------|-----------------------------|
B|---------------------------|-----------------------------|
G|4--------------------------|9----------------------------|
D|4--------------------------|8-------------------2--------|
A|---------------------------|-----------2--3--5-----------|
E|--------5-----7--5-5----8--|-----7--3--------------3--1--|
B|--5--5-----5---------5-----|--5--------------------------|
 
 
 
 
    C#m
    Gtr.2
      P.M.  P.M.      P.M.     P.M.
E|---------------------------|-----------------------------|
B|---------------------------|-----------------------------|
G|4--------------------------|9----------------------------|
D|4--------------------------|8----------------------------|
A|---------------------------|--------------------4--7--5--|
E|--------2-----4--2-2----5--|-----4-----4--5--7-----------|
B|--2--2-----2---------2-----|--2-----5--------------------|
 |  Gtr.3
 |    P.M.  P.M.      P.M.     P.M.
E|---------------------------|-----------------------------|
B|---------------------------|-----------------------------|
G|4--------------------------|9----------------------------|
D|4--------------------------|8----------------------------|
A|---------------------------|--------------------4--7--5--|
E|--------2-----4--2-2----5--|-----4-----4--5--7-----------|
B|--2--2-----2---------2-----|--2-----5--------------------|
 
 
 
 
 
    Gtr.2
      P.M.  P.M.      P.M.     
E|---------------------------|-----------------------------|
B|---------------------------|-----------------------------|
G|4--------------------------|9----------------------------|
D|4--------------------------|8----6-----------------------|
A|---------------------------|--4-----------------4--7--5--|
E|--------2-----4--2-2----5--|-----------4--5--7-----------|
B|--2--2-----2---------2-----|--------5--------------------|
 |  Gtr.3
 |    P.M.  P.M.      P.M.     
E|---------------------------|-----------------------------|
B|---------------------------|-----------------------------|
G|4--------------------------|9----------------------------|
D|4--------------------------|8----6-----------------------|
A|---------------------------|--4-----------------4--7--5--|
E|--------2-----4--2-2----5--|-----------4--5--7-----------|
B|--2--2-----2---------2-----|--------5--------------------|
 
 
 
 
 
    Gtr.2
      P.M.  P.M.      P.M.
E|---------------------------|-----------------------------|
B|---------------------------|-----------------------------|
G|4--------------------------|9----------------------------|
D|4-------4-----6--4-4----7--|8----6-----------------------|
A|--4--4-----4---------4-----|--4-----7-----------4--7--5--|
E|---------------------------|-----------4--5--7-----------|
B|---------------------------|-----------------------------|
 |  Gtr.3
 |    P.M.  P.M.      P.M.
E|---------------------------|-----------------------------|
B|---------------------------|-----------------------------|
G|4--------------------------|9----------------------------|
D|4-------4-----6--4-4----7--|8----6-----------------------|
A|--4--4-----4---------4-----|--4-----7-----------4--7--5--|
E|---------------------------|-----------4--5--7-----------|
B|---------------------------|-----------------------------|
 
 
 
 
    Em
    Gtr.2
      P.M.  P.M.      P.M.      P.M.
E|----------------------------|--------------------------------|
B|----------------------------|--------------------------------|
G|4---------------------------|9-------------------------------|
D|4-------7-----9--7-7----10--|8----9--------------------------|
A|--7--7-----7---------7------|--7-----10------------7--10--8--|
E|----------------------------|------------7--8--10------------|
B|----------------------------|--------------------------------|
 |  Gtr.3
 |    P.M.  P.M.      P.M.      P.M.
E|----------------------------|--------------------------------|
B|----------------------------|--------------------------------|
G|4---------------------------|9-------------------------------|
D|4-------7-----9--7-7----10--|8----9--------------------------|
A|--7--7-----7---------7------|--7-----10------------7--10--8--|
E|----------------------------|------------7--8--10------------|
B|----------------------------|--------------------------------|
 
 
 
 
 
    Gtr.2
      P.M.  P.M.     
E|---------------------------|-------------------------------|
B|---------------------------|-------------------------------|
G|4--------------------------|9------------------------------|
D|4-------7-----9--7-7-------|8----9-------------------------|
A|--7--7-----7---------7-----|--7------------------7--10--8--|
E|------------------------8--|-----------7--8--10------------|
B|---------------------------|--------8----------------------|
 |  Gtr.3
 |    P.M.  P.M.      
E|---------------------------|-------------------------------|
B|---------------------------|-------------------------------|
G|4--------------------------|9------------------------------|
D|4-------7-----9--7-7-------|8----9-------------------------|
A|--7--7-----7---------7-----|--7------------------7--10--8--|
E|------------------------8--|-----------7--8--10------------|
B|---------------------------|--------8----------------------|
 
 
 
 
 
    Gtr.2
      P.M.  P.M.      P.M.     
E|---------------------------|-----------------------------|
B|---------------------------|-----------------------------|
G|4--------------------------|9----------------------------|
D|4--------------------------|8-------------------2--------|
A|---------------------------|-----------2--3--5-----------|
E|--------5-----7--5-5----8--|-----7--3--------------3--1--|
B|--5--5-----5---------5-----|--5--------------------------|
 |  Gtr.3
 |    P.M.  P.M.      P.M.     
E|---------------------------|-----------------------------|
B|---------------------------|-----------------------------|
G|4--------------------------|9----------------------------|
D|4--------------------------|8-------------------2--------|
A|---------------------------|-----------2--3--5-----------|
E|--------5-----7--5-5----8--|-----7--3--------------3--1--|
B|--5--5-----5---------5-----|--5--------------------------|
 
 
 
 
 
    Gtr.2
E|--------------------|------------------------------|
B|--------------------|------------------------------|
G|4-------------------|5-----------------------------|
D|4-------------------|4-----------------------------|
A|--------------------|------------------4--7--6--5--|
E|--4--------------5--|----7----4--5--7--------------|
B|--2--------------3--|----5-------------------------|
 |  Gtr.3
E|--------------------|------------------------------|
B|--------------------|------------------------------|
G|4-------------------|5-----------------------------|
D|4-------------------|4-----------------------------|
A|--------------------|------------------4--7--6--5--|
E|--4--------------5--|----7----4--5--7--------------|
B|--2--------------3--|----5-------------------------|
 
 
 
 
    N.C.
    Gtr.2
             ~~~~       ~~~~~~~        ~~~~         ~~~~~~~~~~~~
E|-------------------------|----------------8--11--10--|-(10)-------|
B|-------------------------|----7--10--9---------------|------------|
G|4---------------5--8--7--|(7)------------------------|2-----------|
D|4----4--7--6-------------|---------------------------|4-----------|
A|-(5)---------------------|---------------------------|------------|
E|-------------------------|---------------------------|------------|
B|-------------------------|---------------------------|------------|
 |  Gtr.3
 |           ~~~~       ~~~~~~~        ~~~~         ~~~~~~~~~~~~
E|-------------------------|----------------8--11--10--|-(10)-------|
B|-------------------------|----7--10--9---------------|------------|
G|4---------------5--8--7--|(7)------------------------|2-----------|
D|4----4--7--6-------------|---------------------------|4-----------|
A|-(5)---------------------|---------------------------|------------|
E|-------------------------|---------------------------|------------|
B|-------------------------|---------------------------|------------|
 
 
 
 
                                            F#m
      Gtr.2
E|---11-9-8------------------------------|------------------------|
B|----------10-9-7-----------------------|------------------------|
G|17---------------8-6-5-----------------|4-----------------------|
D|16---------------------7---4-----------|4-----------------------|
A|-------------------------6---6-4-3-----|--4------4-4-4------4-4-|
E|-----------------------------------5-4-|--2------2-2-2------2-2-|
B|---------------------------------------|------------------------|
 |    Gtr.3
E|---11-9-8------------------------------|------------------------|
B|----------10-9-7-----------------------|------------------------|
G|17---------------8-6-5-----------------|4-----------------------|
D|16---------------------7---4-----------|4-----------------------|
A|-------------------------6---6-4-3-----|--4------4-4-4------4-4-|
E|-----------------------------------5-4-|--2------2-2-2------2-2-|
B|---------------------------------------|------------------------|
            
Submit corrections


        A Change Of Seasons lessons Hard to play? Try these video lessons and learn fast A Change Of Seasons lessons
        
↑ Back to top | Tablatures and chords for acoustic guitar and electric guitar, ukulele, drums are parodies/interpretations of the original songs. You may use it for private study, scholarship, research or language learning purposes only