» » »

Drake - Hotline Bling Tabs

Artists:  A B C D E F G H I J K L M N O P Q R S T U V W X Y Z # 

Hotline Bling Tabs

(ver. 2) Click to play this song!
Drake
 Rating:
4.7/5 (20 votes)

 Hotline Bling  lessons Tabs too difficult? Try these video lessons and learn fast
 
                Used to call me on my cell phone?late night when you need my love
e|------------------------------------------------------| 
B|------------------------------------------------------| 
G|-7-7-7-7-10-9-7---7h9--------10-9-7—-7h9--------------| 
D|---------------10----10------------10---10-7----------| 
A|------------------------------------------------------| 
E|------------------------------------------------------| x2

I know when that hotline bling.              That can only mean one thing
e|------------------------------------------------------| 
B|----13-13-13-10-13-15-15-------10----------10-10------| 
G|----------------------------12----12-10-12------------| 
D|------------------------------------------------------| 
A|------------------------------------------------------| 
E|------------------------------------------------------| 

Ever since I left the city u?got a reputation for yourself now
e|-----------------------------10-------------------------| 
B|13-10-13-10-13-10-13-10-13\15--10-10-10-10-11-10-------8| 
G|-----------------------------------------------12-10-12-| 
D|--------------------------------------------------------| 
A|--------------------------------------------------------| 
E|--------------------------------------------------------|

everbody knows I feel left out?girl you got me down, you got me stressed out
e|--------------------------------------------------------| 
B|-10-10-10-10-11-10---------8----------------------------| 
G|-------------------12-10-12-----------------------------| 
D|--------------------------------------------------------| 
A|--------------------------------------------------------| 
E|--------------------------------------------------------|
x2

Ever since I left the city u?starting wearing less and going out more
e|-----------------------------10-------------------------| 
B|13-10-13-10-13-10-13-10-13\15--10-10-10-10-11-10-------8| 
G|-----------------------------------------------12-10-12-| 
D|--------------------------------------------------------| 
A|--------------------------------------------------------| 
E|--------------------------------------------------------|

glasses of champagne out on the dance floor
e|--------------------------------------------------------| 
B|-10-10-10-10-11-10---------10---------------------------| 
G|-------------------12-10-12-----------------------------| 
D|--------------------------------------------------------| 
A|--------------------------------------------------------| 
E|--------------------------------------------------------|

hanging with some girls ive never seen before
e|--------------------------------------------------------| 
B|-10-10-10-10-11-10---------10/8-------------------------| 
G|-------------------12-10-12-----------------------------| 
D|--------------------------------------------------------| 
A|--------------------------------------------------------| 
E|--------------------------------------------------------|


u Used to call me on my cell phone?late night when you need my love
e|------------------------------------------------------| 
B|------------------------------------------------------| 
G|-7-7-7-7—10-9-7---7h9----------10-9-7---7h9-----------| 
D|---------------10----10--------------10---10-7--------| 
A|------------------------------------------------------| 
E|------------------------------------------------------|


call me on my cell phone?late night when you need my love
e|------------------------------------------------------| 
B|------------------------------------------------------| 
G|-------7—10-9-7---7h9----------10-9-7---7h9-----------| 
D|---------------10----10--------------10---10-7--------| 
A|------------------------------------------------------| 
E|------------------------------------------------------|

I know when that hotline bling.              That can only mean one thing
e|------------------------------------------------------| 
B|----13-13-13-10-13-15-15-------10----------10-10------| 
G|----------------------------12----12-10-12------------| 
D|------------------------------------------------------| 
A|------------------------------------------------------| 
E|------------------------------------------------------| 
X2

Ever since I left the city you, you, you
e|------------------------------10~10~10~-----------------| 
B|13-10-13-10-13-10-13-10-13\15---------------------------| 
G|--------------------------------------------------------| 
D|--------------------------------------------------------| 
A|--------------------------------------------------------| 
E|--------------------------------------------------------|

you and me we just don't get along?you make me feel like I did you wrong, going places you just don't belong
e|--------------------------------------------------------| 
B|-10-10-10-10-11-10---------8----------------------------| 
G|-------------------12-10-12-----------------------------| 
D|--------------------------------------------------------| 
A|--------------------------------------------------------| 
E|--------------------------------------------------------|
x3

Ever since I left the city u?got exactly what you asked for
e|-----------------------------10-------------------------| 
B|13-10-13-10-13-10-13-10-13\15--10-10-10-10-11-10-------6| 
G|-----------------------------------------------12-10-12-| 
D|--------------------------------------------------------| 
A|--------------------------------------------------------| 
E|--------------------------------------------------------|

Running out of pages in your passport?hanging with some girls ive never seen before
e|--------------------------------------------------------| 
B|-10-10-10-10-11-10---------10/8-------------------------| 
G|-------------------12-10-12-----------------------------| 
D|--------------------------------------------------------| 
A|--------------------------------------------------------| 
E|--------------------------------------------------------|
x2

u Used to call me on my cell phone?late night when you need my love
e|------------------------------------------------------| 
B|------------------------------------------------------| 
G|-7-7-7-7—10-9-7---7h9----------10-9-7---7h9-----------| 
D|---------------10----10--------------10---10-7--------| 
A|------------------------------------------------------| 
E|------------------------------------------------------|

call me on my cell phone?late night when you need my love
e|------------------------------------------------------| 
B|------------------------------------------------------| 
G|-------7—10-9-7---7h9----------10-9-7---7h9-----------| 
D|---------------10----10--------------10---10-7--------| 
A|------------------------------------------------------| 
E|------------------------------------------------------|

I know when that hotline bling.              That can only mean one thing
e|------------------------------------------------------| 
B|----13-13-13-10-13-15-15-------10----------10-13------| 
G|----------------------------12----12-10-12------------| 
D|------------------------------------------------------| 
A|------------------------------------------------------| 
E|------------------------------------------------------| 
X2 

des days all I do is wonder if you bending over backwards for someone else
wonder if you rolling over backwards for some one else
doing things I taught you , getting nasty for someone else
you don't need no one else
you don't need nobody else, NO
why you never alone
why you always touching road
used to always stay at home, be a good girl
you was in a zone, yeah
you should just be yourself
right now, youre some one else

u Used to call me on my cell phone?late night when you need my love
e|------------------------------------------------------| 
B|------------------------------------------------------| 
G|-7-7-7-7—10-9-7---7h9----------10-9-7---7h9-----------| 
D|---------------10----10--------------10---10-7--------| 
A|------------------------------------------------------| 
E|------------------------------------------------------|

call me on my cell phone?late night when you need my love
e|------------------------------------------------------| 
B|------------------------------------------------------| 
G|-------7—10-9-7---7h9----------10-9-7---7h9-----------| 
D|---------------10----10--------------10---10-7--------| 
A|------------------------------------------------------| 
E|------------------------------------------------------|

I know when that hotline bling.      That can only mean one thing
e|------------------------------------------------------| 
B|----13-13-13-10-13-15-15-------10----------10-13------| 
G|----------------------------12----12-10-12------------| 
D|------------------------------------------------------| 
A|------------------------------------------------------| 
E|------------------------------------------------------|
X2
            
Submit corrections


        Hotline Bling  lessons Hard to play? Try these video lessons and learn fast Hotline Bling  lessons
        
↑ Back to top | Tablatures and chords for acoustic guitar and electric guitar, ukulele, drums are parodies/interpretations of the original songs. You may use it for private study, scholarship, research or language learning purposes only