» » »

Drake - Hotline Bling Tabs

Artists:  A B C D E F G H I J K L M N O P Q R S T U V W X Y Z # 

Hotline Bling Tabs

(ver. 1) Click to play this song!
Drake
 Rating:
3/5 (21 vote)

 Hotline Bling  lessons Tabs too difficult? Try these video lessons and learn fast
 
                 You used to call me on my, you used to, you used to
e|---------------------------------------------------------------------------|
B|---------------------------------------------------------------------------|
G|--------------10-9---------------------------------------------------------|
D|----12-12-10-------12-10-------12--------12--------------------------------|
A|----------------------------------12--------12-----------------------------|
E|-------------------------------------13--------13--------------------------|
 
 You used to call me on my cell phone
 Late night when you need my love
e|---------------------------------------------------------------------------|
B|---------------------------------------------------------------------------|
G|-------------10-9-------9-------10-9-------9-------------------------------|
D|----12-12-10------12-10---12---------12-10---10----------------------------|
A|------------------------------------------------12-------------------------|
E|---------------------------------------------------------------------------|
 
 Call me on my cellphone
 Late night when you need my love
e|---------------------------------------------------------------------------|
B|---------------------------------------------------------------------------|
G|----10-9-------9------10-9-------9-----------------------------------------|
D|---------12-10---12--------12-10---10--------------------------------------|
A|--------------------------------------12-----------------------------------|
E|---------------------------------------------------------------------------|

 2X
 I know when that hotline bling
 That can only mean one thing    
e|---------------------------------------------------------------------------|
B|----13-13-13-10-13-15-15-------10----------10-10---------------------------|
G|----------------------------12----12-10-12---------------------------------|
D|---------------------------------------------------------------------------|
A|---------------------------------------------------------------------------|
E|---------------------------------------------------------------------------|

 Ever since I left the city you
 Got a reputation for yourself now
e|---------------------------------------------------------------------------|
B|----13-10-13-10-13-10-13-10-13b15r13---10-10-10-10-11-10----------10-------|
G|---------------------------------------------------------12-10-12----------|
D|---------------------------------------------------------------------------|
A|---------------------------------------------------------------------------|
E|---------------------------------------------------------------------------|

 [For every line this same riff]
 Everybody knows and I feel left out
 Girl you got me down, you got me stressed out 
e|---------------------------------------------------------------------------|
B|----10-10-10-10-11-10----------10------------------------------------------|
G|----------------------12-10-12---------------------------------------------|
D|---------------------------------------------------------------------------|
A|---------------------------------------------------------------------------|
E|---------------------------------------------------------------------------|
            
Submit corrections


        Hotline Bling  lessons Hard to play? Try these video lessons and learn fast Hotline Bling  lessons
        
↑ Back to top | Tablatures and chords for acoustic guitar and electric guitar, ukulele, drums are parodies/interpretations of the original songs. You may use it for private study, scholarship, research or language learning purposes only