» » »

Drake - Hotline Bling Tabs

Artists:  A B C D E F G H I J K L M N O P Q R S T U V W X Y Z # 

Hotline Bling Tabs

(ver. 3) Click to play this song!
Drake
 Rating:
4.4/5 (11 votes)

 Hotline Bling  lessons Tabs too difficult? Try these video lessons and learn fast
 
                [Hook]
e|-------0h1p0-------0-----|--1p0-------0--------|--1-0-------0-----|--1p0-------0--------|
B|--3-3---------3-1-----1--|-------3p1-----1-----|-------3p1-----1--|-------3p1-----1-----|
G|-------------------------|------------------2--|------------------|------------------2--|
D|-------------------------|---------------------|------------------|---------------------|
A|-------------------------|---------------------|------------------|---------------------|
E|-------------------------|---------------------|------------------|---------------------|

e|----------------------|---------------------|
B|--1-1-1-----1-1--1h3--|---------------------|
G|---------2------------|--0h2p0-----0-0-0h2--|
D|----------------------|---------3-----------| (2x)
A|----------------------|---------------------|
E|----------------------|---------------------|

[Verse 1] 
e|----------------------|---------------------|
B|--1-1-1-----1-1--1h3--|---------------------|
G|---------2------------|--0h2p0-----0-0-0h2--|
D|----------------------|---------3-----------| (2x)
A|----------------------|---------------------|
E|----------------------|---------------------|

e|-----------------------------|
B|--1-----1-----1-----1-----3--|
G|-----2-----2-----2-----2-----|
D|-----------------------------|
A|-----------------------------|
E|-----------------------------|

e|----------------------------|
B|----------------------------|
G|--2-2-2-2--3--2--0----------|
D|--------------------3/5-----| (3x)
A|-------------------------5--|
E|----------------------------|

e|--------------------------------|
B|-----1-----1-----1-----1-----3--|
G|--2-----2-----2-----2-----2-----|
D|--------------------------------|
A|--------------------------------|
E|--------------------------------|

e|----------------------------|
B|----------------------------|
G|--2-2-2-2--3--2--0----------|
D|--------------------3/5-----| (2x)
A|-------------------------5--|
E|----------------------------|

e|----------------------------|
B|----------------------------|
G|--2-2-2-2-3-2-0-----0--2p0--|
D|-----------------3----------|
A|----------------------------|
E|----------------------------|

[Hook]
e|-------0h1p0-------0-----|--1p0-------0--------|--1-0-------0-----|--1p0-------0--------|
B|--3-3---------3-1-----1--|-------3p1-----1-----|-------3p1-----1--|-------3p1-----1-----|
G|-------------------------|------------------2--|------------------|------------------2--|
D|-------------------------|---------------------|------------------|---------------------|
A|-------------------------|---------------------|------------------|---------------------|
E|-------------------------|---------------------|------------------|---------------------|

e|----------------------|---------------------|
B|--1-1-1-----1-1--1h3--|---------------------|
G|---------2------------|--0h2p0-----0-0-0h2--|
D|----------------------|---------3-----------| (2x)
A|----------------------|---------------------|
E|----------------------|---------------------|

[Verse 2]
e|-----------------------------0-----|
B|--1-----1-----1-----1-----3-----1--|
G|-----2-----2-----2-----2-----------|
D|-----------------------------------|
A|-----------------------------------|
E|-----------------------------------|

e|-------------------------------|
B|-------------------------------|
G|--2-2-2-2--3--2--0-------------|
D|--------------------3/5--5-----| (3x)
A|----------------------------5--|
E|-------------------------------|

e|-----------------------------|
B|--1-----1-----1-----1-----3--|
G|-----2-----2-----2-----2-----|
D|-----------------------------|
A|-----------------------------|
E|-----------------------------|

e|----------------------------|
B|----------------------------|
G|--2-2-2-2--3--2--0----------|
D|--------------------3/5-----| (2x)
A|-------------------------5--|
E|----------------------------|

e|----------------------------|
B|----------------------------|
G|--2-2-2-2-3-2-0-----0--2p0--|
D|-----------------3----------|
A|----------------------------|
E|----------------------------|

[Hook]
e|-------0h1p0-------0-----|--1p0-------0--------|--1-0-------0-----|--1p0-------0--------|
B|--3-3---------3-1-----1--|-------3p1-----1-----|-------3p1-----1--|-------3p1-----1-----|
G|-------------------------|------------------2--|------------------|------------------2--|
D|-------------------------|---------------------|------------------|---------------------|
A|-------------------------|---------------------|------------------|---------------------|
E|-------------------------|---------------------|------------------|---------------------|

e|----------------------|---------------------|
B|--1-1-1-----1-1--1h3--|---------------------|
G|---------2------------|--0h2p0-----0-0-0h2--|
D|----------------------|---------3-----------| (2x)
A|----------------------|---------------------|
E|----------------------|---------------------|

[Bridge]
e|------------------------|----------------------|-----------|
B|--1-----1-----1-1-1-----|----------------------|-----------|
G|-----2-----2---------2--|--3-3-3-3-3--2-2-0-2--|--0-0-2-0--|
D|------------------------|----------------------|-----------|
A|------------------------|----------------------|-----------|
E|------------------------|----------------------|-----------|

e|----------------------|-----------|
B|----------------------|-----------|
G|--3-3-3-3-3--2-2-0-2--|--0-0-2-0--|
D|----------------------|-----------| (2x)
A|----------------------|-----------|
E|----------------------|-----------|

e|-----------------|-------------------|
B|--1--------------|--1-1--------------|
G|----------0h2p0--|------------0h2p0--|
D|-----3-3---------|--3-3--3-3---------|
A|-----------------|-------------------|
E|-----------------|-------------------|

e|----------------------|-----------|
B|----------------------|-----------|
G|--3-3-3-3-3--2-2-0-2--|--0-0-2-0--|
D|----------------------|-----------| (2x)
A|----------------------|-----------|
E|----------------------|-----------|

e|-----------------|-------------------|
B|--1--------------|--1-1--------------|
G|----------0h2p0--|------------0h2p0--|
D|-----3-3---------|--3-3--3-3---------|
A|-----------------|-------------------|
E|-----------------|-------------------|

[Hook]
e|-------0h1p0-------0-----|--1p0-------0--------|--1-0-------0-----|--1p0-------0--------|
B|--3-3---------3-1-----1--|-------3p1-----1-----|-------3p1-----1--|-------3p1-----1-----|
G|-------------------------|------------------2--|------------------|------------------2--|
D|-------------------------|---------------------|------------------|---------------------|
A|-------------------------|---------------------|------------------|---------------------|
E|-------------------------|---------------------|------------------|---------------------|

e|----------------------|---------------------|
B|--1-1-1-----1-1--1h3--|---------------------|
G|---------2------------|--0h2p0-----0-0-0h2--|
D|----------------------|---------3-----------| (2x)
A|----------------------|---------------------|
E|----------------------|---------------------|            
Submit corrections


        Hotline Bling  lessons Hard to play? Try these video lessons and learn fast Hotline Bling  lessons
        
↑ Back to top | Tablatures and chords for acoustic guitar and electric guitar, ukulele, drums are parodies/interpretations of the original songs. You may use it for private study, scholarship, research or language learning purposes only