Home » D » Dragonforce »

Dragonforce - Trail Broken Of Heart Tabs

Artists:  A B C D E F G H I J K L M N O P Q R S T U V W X Y Z # 

Trail Broken Of Heart Tabs

(ver. 3) Click to play this song!
Dragonforce
 Rating:
4/5 (4 votes)
                STANDARD TUNING

This is the intro and solo for Trail of Broken Hearts, an amazing song with a kickass solo  : )   enjoy

even though the intro isn't on guitar, this part still sounds ok

INTRO THING
|--5-7-9-10-9-7-9-12-------9-10-9----9-10s16-17-14-16-14b-12b--9-7-9-5--5-7-5-4-5|
|---------------------9-10---------12--------------------------------------------|
|--------------------------------------------------------------------------------|
|--------------------------------------------------------------------------------|
|--------------------------------------------------------------------------------|
|--------------------------------------------------------------------------------|


SOLO START 3:57
|---9-9-7----------------------12-9h12p9--------9--------------------------------|
|---------10------------14*-------------12-10-12--12—14b*b*----------------------|
|-----------9-9-11-9-14*---------------------------------------------------------|
|--------------------------------------------------------------------------------|
|--------------------------------------------------------------------------------|
|--------------------------------------------------------------------------------|

/--x4--\ /--x4--\ /--x4--\  /--x4--\
|---------|--9tr12--|-14tr17---|-17tr21---|-14tr17-|-9tr12-|
|-7tr10---|---------|----------|----------|--------|-------|
|---------|---------|----------|----------|--------|-------|
|---------|---------|----------|----------|--------|-------|
|---------|---------|----------|----------|--------|-------|
|---------|---------|----------|----------|--------|-------|

|-12-9-12-17-21-24-21-19-21-19-----------|
|----------------------------------------|
|----------------------------------------|
|----------------------------------------|
|----------------------------------------|
|----------------------------------------|
                                                                     
                                                                         /-FASTx13-\
|-12-14-12-21-171717-1212-9-12-|---Tap2114h17p14-----|-21-1919-17-19-21-19-----|
|------------------------------|---------------------|-------------------------|
|------------------------------|---------------------|-------------------------|
|------------------------------|---------------------|-------------------------|
|------------------------------|---------------------|-------------------------|
|------------------------------|---------------------|-------------------------|

|--17-19-17-21-24-24-21-1717-19-17-19-17--17----|
|---------------------------------------19------|
|-----------------------------------------------|
|-----------------------------------------------|
|-----------------------------------------------|
|-----------------------------------------------|

                 
|---------------------------------------12-14-16S17-161412-1412109-1412109-17161412s21b-|
|-1412109-910121415—17p15h17-14-12-14-15------------------------------------------------|
|---------------------------------------------------------------------------------------|
|---------------------------------------------------------------------------------------|
|---------------------------------------------------------------------------------------|
|---------------------------------------------------------------------------------------|

|---------------------------------------12-10-9-10------------------------------|
|-----------------14-15--10-14-10-15-10------------10-12-10-14*-12109-10b-------|
|--11-11-13-14-9----------------------------------------------------------------|
|-------------------------------------------------------------------------------|
|-------------------------------------------------------------------------------|
|-------------------------------------------------------------------------------|

/----------------not positive about this part----------------------\
|----------------------------17—-16tr17-14tr17-12tr17-------------|
|--------------------------17-------------------------14----------|
|--------------------13-14----------------------------------------|
|-----------12-14-16----------------------------------------------|
|--12-14-16-------------------------------------------------------|
|-----------------------------------------------------------------|

|-----------14-16-17-21b-17---------------------------------|
|--14-15-17----------------17-------------------------------|
|-----------------------------------------------------------|
|-----------------------------------------------------------|
|-----------------------------------------------------------|
|-----------------------------------------------------------|

|-12----------------12-14-16-17-17--14-12-9-14--------------|
|----17*--14-12-10------------------------------------------|
|-----------------------------------------------------------|
|-----------------------------------------------------------|
|-----------------------------------------------------------|
|-----------------------------------------------------------|

|-9-10-10-9-7----12-9-17-12—12-21b-21b-22b-19b---191716-------------|
|-------------10---------------------------------------191716-------|
|-------------------------------------------------------------1918--|
|-------------------------------------------------------------------|
|-------------------------------------------------------------------|
|-------------------------------------------------------------------|

|-----------7-9------------------14-12--------------------------------|
|-99-7-9-10-----7--1515-14-15-17-------14----15*----------------------|
|-----------------------------------------14--------------------------|
|---------------------------------------------------------------------|
|---------------------------------------------------------------------|
|---------------------------------------------------------------------|

|---1717-16-17-16-12S16b----9-7-9----------17-19-21-19h21p19-1717--------|
|--------------------------------10*-----19------------------------------|
|--------------------------------------21--------------------------------|
|------------------------------------------------------------------------|
|------------------------------------------------------------------------|
|------------------------------------------------------------------------|
            
Submit corrections

↑ Back to top | Tablatures and chords for acoustic guitar and electric guitar, ukulele, drums are parodies/interpretations of the original songs. You may use it for private study, scholarship, research or language learning purposes only