» » »

Dragonforce - Avant La Tempete Tabs

Artists:  A B C D E F G H I J K L M N O P Q R S T U V W X Y Z # 

Avant La Tempete Tabs

(ver. 1) Click to play this song!
Dragonforce
 Rating:
4/5 (4 votes)

 Avant La Tempete lessons Tabs too difficult? Try these video lessons and learn fast
 
                guitar solo 

|----------------------------------|
|----------------------------------|
|----------------------------------|
|-----11-----12--11--9--9--11--7~--|
|--9------9------------------------|
|----------------------------------|


|-----------------------------------|
|-----------------------------------|
|-----------------------------------|
|--4--6--6\7--6--9--7--6--4--2--2h4-|
|-----------------------------------|
|-----------------------------------|
 


|----------------------------------|
|----------------------------------|
|----------------------------------|
|-----11-----12--11--9--9--11--7~--|
|--9------9------------------------|
|----------------------------------|


|-----------------------------------|
|-----------------------------------|
|-----------------------------------|
|--4--6--6\7--6--9--7--6--4---------|
|----------------------------7--7h9-|
|-----------------------------------|


|--------------------------------------------------------------------|
|----------------------------------------------10-12--15--17--14~~---|
|--------------------------------------9-11-12-----------------------|
|-\11--9--11--9--11-------------9-11-12------------------------------|
|--------------------9---9-11-12-------------------------------------|
|--------------------------------------------------------------------|




|---------------------------------------------------------------------|
|--14--19--14--17--14--15-15---17--14--12--14--10--9--10--7--5--7-----|
|------------------------------------------------------------------6--|
|---------------------------------------------------------------------|
|---------------------------------------------------------------------|
|---------------------------------------------------------------------|



|-------------------------------|
|-------------------------------|
|-------4--6--2~----------------|
|-------------------------------|
|-------------------------------|
|-------------------------------|




|------------------------------------|
|--7--7--9--10-----------------------|
|---------------7--7--9--9\11--------|
|------------------------------------|
|------------------------------------|
|------------------------------------|




|-------------7---\14-------------------------------|
|------7--------------14----------------------------|
|--\6----6-7-------------14-------------------------|
|---------------------------16----------------------|
|------------------------------16-12-11-9-9h11------|
|---------------------------------------------------|




|-------------------------------|
|--------------------9~---------|
|-------------10----------------|
|----------------11-------------|
|--9h11-8--11-------------------|
|-------------------------------|


|----------------------------------|
|----------------------------------|
|----------------------------------|
|-----11-----12--11--9--9--11--7~--|
|--9------9------------------------|
|----------------------------------|


|-----------------------------------|
|-----------------------------------|
|-----------------------------------|
|--4--6--6\7--6--9--7--6--4---------|
|----------------------------7--7h9-|
|-----------------------------------|



|----------------------------------9--9\10-9----------------------|
|---------------------10----------------------12-10-12-12pb14-10--|
|----------------9-11----11-9-------------------------------------|
|---------7-9\11---------------11---------------------------------|
|--7-9-11---------------------------------------------------------|
|-----------------------------------------------------------------|




|-------------------------------------------------|
|--7--9--9\10--9--10\12--10--9---5--5h7-----------|
|-----------------------------------------7--4--6-|
|-------------------------------------------------|
|-------------------------------------------------|
|-------------------------------------------------|





|--5---5---5---4---4---4----2---2----2------------------------------|
|----2---2---2---2---2---2-----------------6---6---6---7---7---7----|
|-----------------------------2----2----2----3---3---3---4---4---4--|
|-------------------------------------------------------------------|
|-------------------------------------------------------------------|



|-----------------------------------------|
|--\7--5--3--3h5--2-----------------------|
|--------------------1--4-----------------|
|-------------------------3--\6--\9--\11--|
|-----------------------------------------|
|-----------------------------------------|




|------------------4--6------------|
|---9~-----------------------------|
|--10~------6--7----------7--6-----|
|--11~-----------------------------|
|---9~-----------------------------|
|----------------------------------|
            
Submit corrections


        Avant La Tempete lessons Hard to play? Try these video lessons and learn fast Avant La Tempete lessons
        
↑ Back to top | Tablatures and chords for acoustic guitar and electric guitar, ukulele, drums are parodies/interpretations of the original songs. You may use it for private study, scholarship, research or language learning purposes only