» » »

Dragonforce - Strike Of The Ninja Tabs

Artists:  A B C D E F G H I J K L M N O P Q R S T U V W X Y Z # 

Strike Of The Ninja Tabs

(ver. 1) Click to play this song!
Dragonforce
 Rating:
4/5 (4 votes)

 Strike Of The Ninja lessons Tabs too difficult? Try these video lessons and learn fast
 
                So far I only have to the chorus, but I might do more later. Enjoy!


   Intro
    
         PM|      PM|      PM|      PM|
||-----------------------------------------|
||o----------------------------------------|
||-----------------------------------------|
||--6-6------6-6------6-6------6-6---------|
||o-4-4--4-4-4-4--4-4-4-4--4-4-4-4--4-4----|
||-----------------------------------------|


       PM|      PM|      PM|      PM|
|--------------------------------------|
|-------------------------------------o|
|--------------------------------------| X2
|--------------------------------------|
|-7-7------7-7------7-7------7-7------o|
|-5-5--5-5-5-5--5-5-5-5--5-5-5-5--5-5--|


   Verse
    PM
||----------------------------------------------|
||o--------------------------------------------o|
||----------------------------------------------| X2
||-----6----------------------------------------|
||o-4--4---------7--7-7-7-7-7--6--6-6-6-6-6----o|
||---------------5--5-5-5-5-5--4--4-4-4-4-4-----|


 Pre-Chorus
                                  PM----------|
|------------------------------------------------|
|------------------------------------------------|
|------------------------------------------------|
|-3--------7--5-7----3---------------------------|
|-1--------5--3-5----1--------7---7-7--7-7--7-7--|
|-----------------------------5---5-5--5-5--5-5--|


   Chorus
                       3x
||---------------------||-------------------|
||o-------------------o||-------------------|
||---------------------||-------------------|
||--5---7----3---5-----||-------------------|
||o-3---5----1---3----o||-5---7----3---5----|
||---------------------||-3---5----1---3----|
            
Submit corrections


        Strike Of The Ninja lessons Hard to play? Try these video lessons and learn fast Strike Of The Ninja lessons
        
↑ Back to top | Tablatures and chords for acoustic guitar and electric guitar, ukulele, drums are parodies/interpretations of the original songs. You may use it for private study, scholarship, research or language learning purposes only