» » »

Dragonforce - Prepare For War Tabs

Artists:  A B C D E F G H I J K L M N O P Q R S T U V W X Y Z # 

Prepare For War Tabs

(ver. 1) Click to play this song!
Dragonforce
 Rating:
4/5 (4 votes)

 Prepare For War lessons Tabs too difficult? Try these video lessons and learn fast
 
                
PREPARE FOR WAR
As recorded by DragonForce
(From the 2006 Album SONIC FIRESTORM)



E5
0 2 2 x x x

C5
x 3 5 5 x x

D5
x 5 7 7 x x

A5
x 0 2 2 x x
B5
x 2 4 4 x x

E5VII
x 7 9 9 x x

Gtr I (E A D G B E) - 'Lead 1'
Gtr II (E A D G B E) - 'Lead 2'
Gtr III (E A D G B E) - 'Guitar 1'
Gtr IV (E A D G B E) - 'Guitar 2'
Gtr V (E A D G B E) - 'Clean and Acoustic'

 Intro
  Q=100
  E5           C5             E5             D5
 4/4
  Gtr IV
  E Q.         E Q.           E Q.           H
  |            |              |              |
  /            /              /              /

  Gtr I
  E S  S S S E E S  S S S E   E S  S S S S E   S S E S E
|---------------------------|--------------7---5---5------|
|-5-5--5-8-7----------8-7-8-|-5-5--5-8-7-8-------8---8-7--|
|------------7-5-5--5-------|-----------------------------|
|---------------------------|-----------------------------|
|---------------------------|-----------------------------|
|---------------------------|-----------------------------|
|
| Gtr II
| E S  S S S E E S  S S S E   E S  S S S S E   S S E S E
|---------------------------|--------------3---2---2------|
|--------5-3----------5-3-5-|--------5-3-5-------5---5-3--|
|-4-4--4-----4-0-0--0-------|-4-4--4----------------------|
|---------------------------|-----------------------------|
|---------------------------|-----------------------------|
|---------------------------|-----------------------------|
|
| Gtr III
| E Q.         E Q.           E Q.           H
|---------------------------|-----------------------------|
|---------------------------|-----------------------------|
|-9------------5------------|-9--------------7------------|
|-9------------5------------|-9--------------7------------|
|-7------------3------------|-7--------------5------------|
|---------------------------|-----------------------------|


  E5                               C5
  E       Q.                       E       Q.
  |                                |
  /                                /

  T T T T T  T T T T T T T T T T T T T T T T  T T T T T T T T T T T
|--------------------------5--------------------------------5--------|
|-5-8-7-8-5--8-7-8-5-8-7-8---8-7-----8-7-8----8-7-8---8-7-8---8-7----|
|--------------------------------7-5-------5--------5-------------7--|
|--------------------------------------------------------------------|
|--------------------------------------------------------------------|
|--------------------------------------------------------------------|
|
| T T T T T  T T T T T T T T T T T T T T T T  T T T T T T T T T T T
|--------------------------2--------------------------------2--------|
|---5-3-5----5-3-5---5-3-5---5-3-----5-3-5----5-3-5---5-3-5---5-3----|
|-4-------4--------4-------------4-0-------0--------0-------------4--|
|--------------------------------------------------------------------|
|--------------------------------------------------------------------|
|--------------------------------------------------------------------|
|
| E       Q.                       E       Q.
|--------------------------------------------------------------------|
|--------------------------------------------------------------------|
|-9--------------------------------5---------------------------------|
|-9--------------------------------5---------------------------------|
|-7--------------------------------3---------------------------------|
|--------------------------------------------------------------------|


  T T T T T T T T T T T T T T T T T T T T T T T T T T T T T T T T
|---------------------------------------------------------------5--|
|-------------------------3-------------------------------5-7-8----|
|-2-5-4-5-2-5-4-5-2-5-4-5---5-4---4-7-6-7-4-7-6-7-4-7-6-7----------|
|-------------------------------5----------------------------------|
|------------------------------------------------------------------|
|------------------------------------------------------------------|
|
| T T T T T T T T T T T T T T T T T T T T T T T T T T T T T T T T
|------------------------------------------------------------------|
|-----------------------------------------------------------3-5-7--|
|-------------------------4---------4-2-4---4-2-4---4-2-4-5--------|
|-4-7-5-7-4-7-5-7-4-7-5-7---7-5---4-------4-------4----------------|
|-------------------------------7----------------------------------|
|------------------------------------------------------------------|
|
| Gtrs III, IV
| H                               H
|------------------------------------------------------------------|
|------------------------------------------------------------------|
|-2-------------------------------4--------------------------------|
|-2-------------------------------4--------------------------------|
|-0-------------------------------2--------------------------------|
|------------------------------------------------------------------|


  E.         S   S   S   S   S   E.         S S   S   S   S
|-7----------7---7---7---5---7--------------7-7---7---5---7---|
|--------------------------------8----------------------------|
|-------------------------------------------------------------|
|-------------------------------------------------------------|
|-------------------------------------------------------------|
|-------------------------------------------------------------|
|
| E.         S   S   S   S   S   E.         S S   S   S   S
|-------------------------------------------------------------|
|-8----------8---8---8---7---8--------------8-8---8---7---8---|
|--------------------------------9----------------------------|
|-------------------------------------------------------------|
|-------------------------------------------------------------|
|-------------------------------------------------------------|
|
| S  T T T T T T T T T T T T T T S  T T T T S T T T T T T T T
|-------------------------------------------------------------|
|-------------------------------------------------------------|
|-4-----------------------------------------------------------|
|-2--2-2-2-2-2-2-2-2-2-2-2-2-2-2-5----------5-----------------|
|-2------------------------------3--3-3-3-3-3-3-3-3-3-3-3-3-3-|
|-0--0-0-0-0-0-0-0-0-0-0-0-0-0-0------------------------------|


    E.         S   S   S   S   S    E      S    S S   E.
|-[12]---------7---7---7---5---7----8S====10----8-----7------------|
|------------------------------------------------------------------|
|------------------------------------------------------------------|
|------------------------------------------------------------------|
|------------------------------------------------------------------|
|------------------------------------------------------------------|
|
|   E.         S   S   S   S   S    E      S    S S   E.
|------------------------------------------------------------------|
|-[12]---------8---8---8---7---8---10S====12---10-----8------------|
|------------------------------------------------------------------|
|------------------------------------------------------------------|
|------------------------------------------------------------------|
|------------------------------------------------------------------|
|
|   S  T T T T T T T T T T T T T T  S T T  T T  S T T T  T T T T T
|------------------------------------------------------------------|
|------------------------------------------------------------------|
|---4--------------------------------------------------------------|
|---2--2-2-2-2-2-2-2-2-2-2-2-2-2-2--7-----------7------------------|
|---2-------------------------------5-5-5--5-5--5-5-5-5--5-5-5-5-5-|
|---0--0-0-0-0-0-0-0-0-0-0-0-0-0-0---------------------------------|


  E.         S   S   S   S   S   E.         S S   S   S   S
|-7----------7---7---7---5---7--------------7-7---7---5---7---|
|--------------------------------8----------------------------|
|-------------------------------------------------------------|
|-------------------------------------------------------------|
|-------------------------------------------------------------|
|-------------------------------------------------------------|
|
| E.         S   S   S   S   S   E.         S S   S   S   S
|-------------------------------------------------------------|
|-8----------8---8---8---7---8--------------8-8---8---7---8---|
|--------------------------------9----------------------------|
|-------------------------------------------------------------|
|-------------------------------------------------------------|
|-------------------------------------------------------------|
|
| S  T T T T T T T T T T T T T T S  T T T T S T T T T T T T T
|-------------------------------------------------------------|
|-------------------------------------------------------------|
|-4-----------------------------------------------------------|
|-2--2-2-2-2-2-2-2-2-2-2-2-2-2-2-5----------5-----------------|
|-2------------------------------3--3-3-3-3-3-3-3-3-3-3-3-3-3-|
|-0--0-0-0-0-0-0-0-0-0-0-0-0-0-0------------------------------|


  E.         S   S   S   S   S    T T T T T T T T T T T T T T T T
|------------7---5-------5---7----8-7-5---------------------------|
|-8------------------8------------------8-7-5---------------------|
|---------------------------------------------7-5-7-5-4-----------|
|-------------------------------------------------------7-5-4-----|
|-------------------------------------------------------------7-5-|
|-----------------------------------------------------------------|
|
| E.         S   S   S   S   S    T T T T T T T T T T T T T T T T
|-----------------------------------------------------------------|
|------------8---7-------7---8---10-8-7---------------------------|
|-9------------------9------------------9-7-5---------------------|
|---------------------------------------------9-7-9-7-5-----------|
|-------------------------------------------------------9-7-5-4---|
|---------------------------------------------------------------7-|
|
| S  T T T T T T T T T T T T T T  T T T T T T T T T T T T T T T T
|-----------------------------------------------------------------|
|-----------------------------------------------------------------|
|-----------------------------------------------------------------|
|-4---------------------------------------------------------------|
|-2--2-2-2-2-2-2-2-2-2-2-2-2-2-2--3-3-3-3-3-3-3-3-3-3-3-3-3-3-3-3-|
|-----------------------------------------------------------------|


   E.          S    S    S    S    S   E.          S  S    S    S   S
|-10----------10---10---10----8---10--------------10-10---10----8---7---|
|--------------------------------------8--------------------------------|
|-----------------------------------------------------------------------|
|-----------------------------------------------------------------------|
|-----------------------------------------------------------------------|
|-----------------------------------------------------------------------|
|
|  E.          S    S    S    S    S   E.          S  S    S    S   S
|-----------------------------------------------------------------------|
|-12----------12---12---12---10---12--------------12-12---12---10---8---|
|--------------------------------------9--------------------------------|
|-----------------------------------------------------------------------|
|-----------------------------------------------------------------------|
|-----------------------------------------------------------------------|
|
|  S  T T T T  T T  T T  T T  T T  T T S  T T T T  S  T T  T T  T T T T
|-----------------------------------------------------------------------|
|-----------------------------------------------------------------------|
|--4--------------------------------------------------------------------|
|--2--2-2-2-2--2-2--2-2--2-2--2-2--2-2-5-----------5--------------------|
|--2-----------------------------------3--3-3-3-3--3--3-3--3-3--3-3-3-3-|
|--0--0-0-0-0--0-0--0-0--0-0--0-0--0-0----------------------------------|


    E.           S    S    S    S    S    S  S    S    E      S    E
|-[15]----------10---10---10----8---10s==14-14---10---14-----15---17-------|
|--------------------------------------------------------------------------|
|--------------------------------------------------------------------------|
|--------------------------------------------------------------------------|
|--------------------------------------------------------------------------|
|--------------------------------------------------------------------------|
|
|   E       S    S    S    S    S    S    S  S    S    E      S    E
|--------------------------------------------------------------------------|
|-<15>-----12---12---12---12---10---12---15-15---12---15-----17---19-------|
|--------------------------------------------------------------------------|
|--------------------------------------------------------------------------|
|--------------------------------------------------------------------------|
|--------------------------------------------------------------------------|
|
|   S  T T  T T  T T  T T  T T  T T  T T  S  T T  T T  S T T  T T  T T T T
|--------------------------------------------------------------------------|
|--------------------------------------------------------------------------|
|---4----------------------------------------------------------------------|
|---2--2-2--2-2--2-2--2-2--2-2--2-2--2-2--7------------7-------------------|
|---2-------------------------------------5--5-5--5-5--5-5-5--5-5--5-5-5-5-|
|---0--0-0--0-0--0-0--0-0--0-0--0-0--0-0-----------------------------------|


   E.          S    S    S    S    S   E.          S  S    S    S    S
|-10----------10---10---10----8---10--------------10-10---10----8---10---|
|--------------------------------------8---------------------------------|
|------------------------------------------------------------------------|
|------------------------------------------------------------------------|
|------------------------------------------------------------------------|
|------------------------------------------------------------------------|
|
|  E.          S    S    S    S    S   E.          S  S    S    S    S
|------------------------------------------------------------------------|
|-12----------12---12---12---10---12--------------12-12---12---10---12---|
|--------------------------------------9---------------------------------|
|------------------------------------------------------------------------|
|------------------------------------------------------------------------|
|------------------------------------------------------------------------|
|
|  S  T T T T  T T  T T  T T  T T  T T S  T T T T  S  T T  T T  T T  T T
|------------------------------------------------------------------------|
|------------------------------------------------------------------------|
|--4---------------------------------------------------------------------|
|--2--2-2-2-2--2-2--2-2--2-2--2-2--2-2-5-----------5---------------------|
|--2-----------------------------------3--3-3-3-3--3--3-3--3-3--3-3--3-3-|
|--0--0-0-0-0--0-0--0-0--0-0--0-0--0-0-----------------------------------|


   E      S    S     E            S    S    T  T  T  T  T  T  T  T  T  T  T  T  T  T  T  T
|-12-----12---12---[12]b15r======15---17---19p14----14-19p14-19p14----14-19p14-19p14----14-||
|------------------------------------------------------------------------------------------||
|------------------------------------------------16----------------16----------------16----||
|------------------------------------------------------------------------------------------||
|------------------------------------------------------------------------------------------||
|------------------------------------------------------------------------------------------||
|
|  E      S    S     E            S    S    T  T  T  T  T  T  T  T  T  T  T  T  T  T  T  T
|------------------------------------------------------------------------------------------||
|-13-----13---13----13-----------17---19---20p15----15-20p15-20p15----15-20p15-20p15----15-||
|------------------------------------------------------------------------------------------||
|------------------------------------------------16----------------16----------------16----||
|------------------------------------------------------------------------------------------||
|------------------------------------------------------------------------------------------||
|
|  S T T  T T  T T   T     T T T  T T  T T  S     T  T  T  T  T  T  T  T  T  T  T  T  T  T
|------------------------------------------------------------------------------------------||
|------------------------------------------------------------------------------------------||
|------------------------------------------------------------------------------------------||
|--2----------------------------------------4----------------------------------------------||
|--0-0-0--0-0--0-0---0-----0-0-0--0-0--0-0--2-----2--2--2--2--2--2--2--2--2--2--2--2--2--2-||
|------------------------------------------------------------------------------------------||


 Heavey
  E5VII                          D5
  Gtr IV
   E Q.                 E E.     S S S
   |                    |        |   |
   /                    /        /   /

   Q       E      H                E
|-19S=====(0)--------------------------|
|--------------------------------------|
|--------------------------------------|
|--------------------------------------|
|--------------------------------------|
|--------------------------------------|
|
|  Q       E      H                E
|--------------------------------------|
|-20S=====(0)--------------------------|
|--------------------------------------|
|--------------------------------------|
|--------------------------------------|
|--------------------------------------|
|
|  E S  S  S  T T T T S E S  S S E   S
|--------------------------------------|
|--------------------------------------|
|------------------------------------2-|
|--2--------------------2--------5---2-|
|--2----------0-3-6-3-0-2--------5---0-|
|--0-0--0--2------------0-0--0-0-3-----|


  W
  Gtr IV
  E H..
|-------------------------------------------------------|
|-------------------------------------------------------|
|-9-----------------------------------------------------|
|-9-----------------------------------------------------|
|-7-----------------------------------------------------|
|-------------------------------------------------------|
|
| W
|-------------------------------------------------------|
|-------------------------------------------------------|
|-------------------------------------------------------|
|-------------------------------------------------------|
|-------------------------------------------------------|
|-------------------------------------------------------|
|
| E S   S S T T T T S T T T T T T T T T T T T T T T T
|-------------------------------------------------------|
|-------------------------------------------------------|
|-------------------------------------------------------|
|-2-------------------------------4-7-4---4-------------|
|-2---------0-3-6-3-0---0-3-6-3-6-------6---6-3-6-3-----|
|-0-0---0-2-----------2-----------------------------5---|


  Gtrs III, IV
  E S S S T T T T S E S S S E S
|-------------------------------|
|-------------------------------|
|-----------------------------2-|
|-2-----------------2-------5-2-|
|-2-------0-3-6-3-0-2-------5-0-|
|-0-0-0-2-----------0-0-0-0-3---|


  E S S S T T T T S T T T T T T T T T T T T T T T T
|---------------------------------------------------|
|---------------------------------------------------|
|---------------------------------------------------|
|-2-----------------------------4-7-4---4-----------|
|-2-------0-3-6-3-0---0-3-6-3-6-------6---6-3-6-3---|
|-0-0-0-2-----------2-----------------------------5-|


  E S S S T T T T S E S S S E S
|-------------------------------|
|-------------------------------|
|-----------------------------2-|
|-2-----------------2-------5-2-|
|-2-------0-3-6-3-0-2-------5-0-|
|-0-0-0-2-----------0-0-0-0-3---|


  E S S S T T T T S T T T T T T T T T T T T T T T T
|---------------------------------------------------|
|---------------------------------------------------|
|---------------------------------------------------|
|-2-----------------------------4-7-4---4-----------|
|-2-------0-3-6-3-0---0-3-6-3-6-------6---6-3-6-3---|
|-0-0-0-2-----------2-----------------------------5-|


  Gtr III
                                                      ~~
  T T T T T T T T T T T T T T T T T  T T T T  T T  T  Q
|-----------------------------------------------8-11-14--|
|---------------------------------7-10-----7-10----------|
|---------------------5-8-----5-8------5-8---------------|
|---------4-7-----4-7-----4-7----------------------------|
|-----3-6-----3-6----------------------------------------|
|-2-5----------------------------------------------------|


  Gtr II
                                                                                   ~~~~
   T  T  T  T  T  T  T  T  T  T  T  T  E     S      T  T  T  T  T  T  T  T  T  T   E
|-15p12----12-------------------------------------------------------------------------||
|-------15----15p12----12-------------------------------------------------------------||
|-------------------15----15-14-12-14-14b16-14pb16r12----12----------------------[12]-||
|-----------------------------------------------------14----14p12----------12-14------||
|-----------------------------------------------------------------14-12-14------------||
|-------------------------------------------------------------------------------------||


 Verse
  Gtrs III, IV
  S S S T T S S E T T S S T T S S E   T T S S T T S S E T T S S T T S S S S
|-----------------------------------|-----------------------------------------|
|-----------------------------------|-----------------------------------------|
|-----------------------------------|-----------------------------------------|
|-----------------------------------|-----------------------------------------|
|-0-0---0-0-0-0---0-0-0---0-0-0-0-7-|-0-0-0---0-0-0-0-------------------------|
|---------------3-------------------|-----------------3-1-1-1---1-1-1---1-----|


  S S S T T S S E T T S S T T S S E   H    H
|-----------------------------------|-----------|
|-----------------------------------|-----------|
|-----------------------------------|-----------|
|-----------------------------------|-3----5----|
|-0-0---0-0-0-0---0-0-0---0-0-0-0-7-|-3----5----|
|---------------3-------------------|-1----3----|


  T T T T T T T T T T T T E T T T T T T T T T T T T E
|-----------------------------------------------------|
|-----------------------------------------------------|
|-----------------------------------------------------|
|-----------------------------------------------------|
|-0-0-0-0-0-0-0-0-0-0-0-0---0-0-0-0-0-0-0-0-0-0-0-0-7-|
|-------------------------3---------------------------|


  T T T T T T T T T T T T E T T T T T T T T T T T T  E
|-------------------------------------------------------|
|---------------------------------------------------[5]-|
|---------------------------------------------2-4-5-----|
|---------------------------------------2-3-5-----------|
|-0-0-0-0-0-0-0-0-0-0-0-0---------2-3-5-----------------|
|-------------------------3-1-3-5-----------------------|
|
| Gtr IV
| T T T T T T T T T T T T E T T T T T T T T T T T T  E
|-------------------------------------------------------|
|---------------------------------------------1-3-5-[1]-|
|---------------------------------------0-2-4-----------|
|---------------------------------0-2-3-----------------|
|-0-0-0-0-0-0-0-0-0-0-0-0---0-2-3-----------------------|
|-------------------------3-----------------------------|


  Gtrs III, IV
  T T T T T T T T T T T T E T T T T T T T T T T T T E
|-----------------------------------------------------|
|-----------------------------------------------------|
|-----------------------------------------------------|
|-----------------------------------------------------|
|-0-0-0-0-0-0-0-0-0-0-0-0---0-0-0-0-0-0-0-0-0-0-0-0-7-|
|-------------------------3---------------------------|


  T T T T T T T T T T T T T T T T T T T T T T T T T T T T T T T T
|-----------------------------------------------------------------|
|-----------------------------------------------------------------|
|-----------------------------------------------2-4-2-------------|
|-------------2-3-5-3-2-------------------2-3-5-------5-3-2-------|
|-------2-3-5-----------5-3-2-------2-3-5-------------------5-3-2-|
|-1-3-5-----------------------5-3-5-------------------------------|
|
| Gtr IV
| T T T T T T T T T T T T T T T T T T T T T T T T T T T T T T T T
|-----------------------------------------------------------------|
|-----------------------------------------------1-3-1-------------|
|-------------0-2-4-2-0-------------------0-2-4-------4-2-0-------|
|-------0-2-3-----------3-2-0-------0-2-3-------------------3-2-0-|
|-0-2-3-----------------------3-2-0-------------------------------|
|-----------------------------------------------------------------|


  Gtrs III, IV
  W          S T T T T T T T T T T T T T T S T T T T S T T T T T T T T
|----------|------------------------------------------------------------|
|----------|------------------------------------------------------------|
|----------|------------------------------------------------------------|
|-3--------|-2-----------------------------2---------2------------------|
|-3--------|-0-0-0-0-0-0-0-0-0-0-0-0-0-0-0-0-0-0-0-0-0-0-0-0-0-0-0-0-0--|
|-1--------|------------------------------------------------------------|


  W          H    Q  Q    E H..
|----------|------------|----------|
|----------|------------|----------|
|----------|------------|----------|
|-3--------|-2----3--5--|-2--------|
|-3--------|-2----3--5--|-2--------|
|-1--------|-0----1--3--|-0--------|


  S T T T T T T T T T T T T T T S T T T T S T T T T T T T T   W
|-----------------------------------------------------------|------|
|-----------------------------------------------------------|------|
|-----------------------------------------------------------|------|
|-5-----------------------------5---------5-----------------|-3----|
|-3-3-3-3-3-3-3-3-3-3-3-3-3-3-3-3-3-3-3-3-3-3-3-3-3-3-3-3-3-|-3----|
|-----------------------------------------------------------|-1----|


  W          W          W          W
|----------|----------|----------|------|
|----------|----------|----------|------|
|----------|-2--------|-5--------|------|
|-5--------|-2--------|-5--------|-3----|
|-5--------|-0--------|-3--------|-3----|
|-3--------|----------|----------|-1----|


  S T T T T T T T T T T T T T T E Q.
|--------------------------------------|
|--------------------------------------|
|--------------------------------------|
|-------------------------------5------|
|-5-----------------------------5------|
|-3-3-3-3-3-3-3-3-3-3-3-3-3-3-3-3------|


  Gtr III
  |-3-| |-3-| |-3-| |-3-|
  S S S S S S S S S S S S T T T T T T T T T T T T T T T T
|-----------------------------------------------------------||
|-----------------------------------------------------------||
|-------------------------4-2-1-4-2-1-----------------------||
|---------2-3---2-3-5-2-3-------------3-2-3-2---------------||
|---2-3-5-----5-------------------------------5-3-2---------||
|-5-------------------------------------------------5-3-1---||


 Guitar
  Gtr I
  E.         S   S   S   S   S   E.         S S   S   S   S
|-7----------7---7---7---5---7--------------7-7---7---5---7s==|
|--------------------------------8----------------------------|
|-------------------------------------------------------------|
|-------------------------------------------------------------|
|-------------------------------------------------------------|
|-------------------------------------------------------------|
|
| Gtr II
| E.         S   S   S   S   S   E.         S S   S   S   S
|-------------------------------------------------------------|
|-8----------8---8---8---7---8--------------8-8---8---7---8---|
|--------------------------------9----------------------------|
|-------------------------------------------------------------|
|-------------------------------------------------------------|
|-------------------------------------------------------------|
|
| Gtrs III, IV
| S  T T T T T T T T T T T T T T S  T T T T S T T T T T T T T
|-------------------------------------------------------------|
|-------------------------------------------------------------|
|-4-----------------------------------------------------------|
|-2--2-2-2-2-2-2-2-2-2-2-2-2-2-2-5----------5-----------------|
|-2------------------------------3--3-3-3-3-3-3-3-3-3-3-3-3-3-|
|-0--0-0-0-0-0-0-0-0-0-0-0-0-0-0------------------------------|


    E.         S   S   S   S   S    E       S    S S   E.
|-[12]---------7---7---7---5---7----8-----/10----8-----7------------|
|-------------------------------------------------------------------|
|-------------------------------------------------------------------|
|-------------------------------------------------------------------|
|-------------------------------------------------------------------|
|-------------------------------------------------------------------|
|
|   E.         S   S   S   S   S    E       S    S S   E.
|-------------------------------------------------------------------|
|-[12]---------8---8---8---7---8---10-----/12---10-----8------------|
|-------------------------------------------------------------------|
|-------------------------------------------------------------------|
|-------------------------------------------------------------------|
|-------------------------------------------------------------------|
|
|   S  T T T T T T T T T T T T T T  S T T   T T  S T T T  T T T T T
|-------------------------------------------------------------------|
|-------------------------------------------------------------------|
|---4---------------------------------------------------------------|
|---2--2-2-2-2-2-2-2-2-2-2-2-2-2-2--7------------7------------------|
|---2-------------------------------5-5-5---5-5--5-5-5-5--5-5-5-5-5-|
|---0--0-0-0-0-0-0-0-0-0-0-0-0-0-0----------------------------------|


  E.         S   S   S   S   S   T  T T  T T  T S S   S   S   S
|-7----------7---7---7---5---7--------------------7---7---5---7---|
|--------------------------------8h12p8h12p8h12p8-----------------|
|-----------------------------------------------------------------|
|-----------------------------------------------------------------|
|-----------------------------------------------------------------|
|-----------------------------------------------------------------|
|
| E.         S   S   S   S   S   T  T T  T T  T S S   S   S   S
|-----------------------------------------------------------------|
|-8----------8---8---8---7---8--------------------8---8---7---8---|
|--------------------------------9h12p9h12p9h12p9-----------------|
|-----------------------------------------------------------------|
|-----------------------------------------------------------------|
|-----------------------------------------------------------------|
|
| S  T T T T T T T T T T T T T T S    T  T T  T S T T T T T T T T
|-----------------------------------------------------------------|
|-----------------------------------------------------------------|
|-4---------------------------------------------------------------|
|-2--2-2-2-2-2-2-2-2-2-2-2-2-2-2-5--------------5-----------------|
|-2------------------------------3----3--3-3--3-3-3-3-3-3-3-3-3-3-|
|-0--0-0-0-0-0-0-0-0-0-0-0-0-0-0----------------------------------|


  T  T T  T T  T S   S   S   S   S    T T T T T T T T T T T T T T T T
|--------------------5-------5---7----8-7-5----------------------------|
|-8h12p8h12p8h12p8-------8------------------8-7-5----------------------|
|-------------------------------------------------7-5-7-5-4------------|
|-----------------------------------------------------------7-5-4------|
|-----------------------------------------------------------------7-5--|
|----------------------------------------------------------------------|
|
| T  T T  T T  T S   S   S   S   S    T T T T T T T T T T T T T T T T
|----------------------------------------------------------------------|
|--------------------7-------7---8---10-8-7----------------------------|
|-9h12p9h12p9h12p9-------9------------------9-7-5----------------------|
|-------------------------------------------------9-7-9-7-5------------|
|-----------------------------------------------------------9-7-5-4----|
|-------------------------------------------------------------------7--|
|
| S    T  T T  T T T T T T T T T T T  T T T T T T T T T T T T T T T T
|----------------------------------------------------------------------|
|----------------------------------------------------------------------|
|----------------------------------------------------------------------|
|-4--------------------------------------------------------------------|
|-2----2--2-2--2-2-2-2-2-2-2-2-2-2-2--3-3-3-3-3-3-3-3-3-3-3-3-3-3-3-3--|
|----------------------------------------------------------------------|


   E.          S    S    S    S    S   E.          S  S    S    S   S
|-10----------10---10---10----8---10--------------10-10---10----8---7---|
|--------------------------------------8--------------------------------|
|-----------------------------------------------------------------------|
|-----------------------------------------------------------------------|
|-----------------------------------------------------------------------|
|-----------------------------------------------------------------------|
|
|  E.          S    S    S    S    S   E.          S  S    S    S   S
|-----------------------------------------------------------------------|
|-12----------12---12---12---10---12--------------12-12---12---10---8---|
|--------------------------------------9--------------------------------|
|-----------------------------------------------------------------------|
|-----------------------------------------------------------------------|
|-----------------------------------------------------------------------|
|
|  S  T T T T  T T  T T  T T  T T  T T S  T T T T  S  T T  T T  T T T T
|-----------------------------------------------------------------------|
|-----------------------------------------------------------------------|
|--4--------------------------------------------------------------------|
|--2--2-2-2-2--2-2--2-2--2-2--2-2--2-2-5-----------5--------------------|
|--2-----------------------------------3--3-3-3-3--3--3-3--3-3--3-3-3-3-|
|--0--0-0-0-0--0-0--0-0--0-0--0-0--0-0----------------------------------|


    E.           S    S    S    S    S    S  S    S    E      S    E
|-[15]----------10---10---10----8---10s==14-14---10---14-----15---17-------|
|--------------------------------------------------------------------------|
|--------------------------------------------------------------------------|
|--------------------------------------------------------------------------|
|--------------------------------------------------------------------------|
|--------------------------------------------------------------------------|
|
|   E       S    S    S    S    S    S    S  S    S    E      S    E
|--------------------------------------------------------------------------|
|-<15>-----12---12---12---12---10---12---15-15---12---15-----17---19-------|
|--------------------------------------------------------------------------|
|--------------------------------------------------------------------------|
|--------------------------------------------------------------------------|
|--------------------------------------------------------------------------|
|
|   S  T T  T T  T T  T T  T T  T T  T T  S  T T  T T  S T T  T T  T T T T
|--------------------------------------------------------------------------|
|--------------------------------------------------------------------------|
|---4----------------------------------------------------------------------|
|---2--2-2--2-2--2-2--2-2--2-2--2-2--2-2--7------------7-------------------|
|---2-------------------------------------5--5-5--5-5--5-5-5--5-5--5-5-5-5-|
|---0--0-0--0-0--0-0--0-0--0-0--0-0--0-0-----------------------------------|


   E.          S    S    S    S    S   E.          S  S    S    S    S
|-10----------10---10---10----8---10--------------10-10---10----8---10---|
|--------------------------------------8---------------------------------|
|------------------------------------------------------------------------|
|------------------------------------------------------------------------|
|------------------------------------------------------------------------|
|------------------------------------------------------------------------|
|
|  E.          S    S    S    S    S   E.          S  S    S    S    S
|------------------------------------------------------------------------|
|-12----------12---12---12---10---12--------------12-12---12---10---12---|
|--------------------------------------9---------------------------------|
|------------------------------------------------------------------------|
|------------------------------------------------------------------------|
|------------------------------------------------------------------------|
|
|  S  T T T T  T T  T T  T T  T T  T T S  T T T T  S  T T  T T  T T  T T
|------------------------------------------------------------------------|
|------------------------------------------------------------------------|
|--4---------------------------------------------------------------------|
|--2--2-2-2-2--2-2--2-2--2-2--2-2--2-2-5-----------5---------------------|
|--2-----------------------------------3--3-3-3-3--3--3-3--3-3--3-3--3-3-|
|--0--0-0-0-0--0-0--0-0--0-0--0-0--0-0-----------------------------------|


   E      S    S    T  T  T  T  T  T  T  T  T  T  T  T  T  T  T  T  T  T  T  T  T  T  T  T
|-12-----12---12---15-15-12-12-15-15-17-17-19p14----14-19p14-19p14----14-19p14-19p14----14-|
|------------------------------------------------------------------------------------------|
|------------------------------------------------16----------------16----------------16----|
|------------------------------------------------------------------------------------------|
|------------------------------------------------------------------------------------------|
|------------------------------------------------------------------------------------------|
|
|  E      S    S    T  T  T  T  T  T  T  T  T  T  T  T  T  T  T  T  T  T  T  T  T  T  T  T
|------------------------------------------------------------------------------------------|
|-13-----13---13---17-17-13-13-17-17-19-19-20p15----15-20p15-20p15----15-20p15-20p15----15-|
|------------------------------------------------------------------------------------------|
|------------------------------------------------16----------------16----------------16----|
|------------------------------------------------------------------------------------------|
|------------------------------------------------------------------------------------------|
|
|  S T T  T T  T T  T  T  T  T  T  T  T  T  S     T  T  T  T  T  T  T  T  T  T  T  T  T  T
|------------------------------------------------------------------------------------------|
|------------------------------------------------------------------------------------------|
|------------------------------------------------------------------------------------------|
|--2----------------------------------------4----------------------------------------------|
|--0-0-0--0-0--0-0--0--0--0--0--0--0--0--0--2-----2--2--2--2--2--2--2--2--2--2--2--2--2--2-|
|------------------------------------------------------------------------------------------|


 2/4
   /3.5___________/
   a      +E.    +S  Q
|-12-----(12)---(12)-------------|
|--------------------------------|
|--------------------------------|
|--------------------------------|
|--------------------------------|
|--------------------------------|
|
|          Q         Q
|--------------------------------|
|---------20\--------------------|
|--------------------------------|
|--------------------------------|
|--------------------------------|
|--------------------------------|
|
|        Gtr III
|          E  S   S  S T T T T S
|--------------------------------|
|--------------------------------|
|--------------------------------|
|----------2---------------------|
|----------2-----------0-3-6-3-0-|
|----------0--0---0--2-----------|


 4/4
  W
|---------------------------------------------------------||
|---------------------------------------------------------||
|---------------------------------------------------------||
|---------------------------------------------------------||
|---------------------------------------------------------||
|---------------------------------------------------------||
|
| W
|---------------------------------------------------------||
|---------------------------------------------------------||
|---------------------------------------------------------||
|---------------------------------------------------------||
|---------------------------------------------------------||
|---------------------------------------------------------||
|
|                                                     ~~
| T T T T T T T T T T T T T T T T T  T T T T  T T  T  Q
|-----------------------------------------------8-11-14---||
|---------------------------------7-10-----7-10-----------||
|---------------------5-8-----5-8------5-8----------------||
|---------4-7-----4-7-----4-7-----------------------------||
|-----3-6-----3-6-----------------------------------------||
|-2-5-----------------------------------------------------||


 Verse
  Gtrs III, IV
  S S S T T S S E T T S S T T S S E   T T S S T T S S E T T S S T T S S S S
|-----------------------------------|-----------------------------------------|
|-----------------------------------|-----------------------------------------|
|-----------------------------------|-----------------------------------------|
|-----------------------------------|-----------------------------------------|
|-0-0---0-0-0-0---0-0-0---0-0-0-0-7-|-0-0-0---0-0-0-0-------------------------|
|---------------3-------------------|-----------------3-1-1-1---1-1-1---1-----|


  S S S T T S S E T T S S T T S S E   H    H
|-----------------------------------|-----------|
|-----------------------------------|-----------|
|-----------------------------------|-----------|
|-----------------------------------|-3----5----|
|-0-0---0-0-0-0---0-0-0---0-0-0-0-7-|-3----5----|
|---------------3-------------------|-1----3----|


  T T T T T T T T T T T T E T T T T T T T T T T T T E
|-----------------------------------------------------|
|-----------------------------------------------------|
|-----------------------------------------------------|
|-----------------------------------------------------|
|-0-0-0-0-0-0-0-0-0-0-0-0---0-0-0-0-0-0-0-0-0-0-0-0-7-|
|-------------------------3---------------------------|


  T T T T T T T T T T T T E T T T T T T T T T T T T  E
|-------------------------------------------------------|
|---------------------------------------------------[5]-|
|---------------------------------------------2-4-5-----|
|---------------------------------------2-3-5-----------|
|-0-0-0-0-0-0-0-0-0-0-0-0---------2-3-5-----------------|
|-------------------------3-1-3-5-----------------------|
|
| Gtr IV
| T T T T T T T T T T T T E T T T T T T T T T T T T  E
|-------------------------------------------------------|
|---------------------------------------------1-3-5-[1]-|
|---------------------------------------0-2-4-----------|
|---------------------------------0-2-3-----------------|
|-0-0-0-0-0-0-0-0-0-0-0-0---0-2-3-----------------------|
|-------------------------3-----------------------------|


  Gtrs III, IV
  T T T T T T T T T T T T E T T T T T T T T T T T T E
|-----------------------------------------------------|
|-----------------------------------------------------|
|-----------------------------------------------------|
|-----------------------------------------------------|
|-0-0-0-0-0-0-0-0-0-0-0-0---0-0-0-0-0-0-0-0-0-0-0-0-7-|
|-------------------------3---------------------------|


  T T T T T T T T T T T T T T T T T T T T T T T T T T T T T T T T
|-----------------------------------------------------------------|
|-----------------------------------------------------------------|
|-----------------------------------------------2-4-2-------------|
|-------------2-3-5-3-2-------------------2-3-5-------5-3-2-------|
|-------2-3-5-----------5-3-2-------2-3-5-------------------5-3-2-|
|-1-3-5-----------------------5-3-5-------------------------------|
|
| Gtr IV
| T T T T T T T T T T T T T T T T T T T T T T T T T T T T T T T T
|-----------------------------------------------------------------|
|-----------------------------------------------1-3-1-------------|
|-------------0-2-4-2-0-------------------0-2-4-------4-2-0-------|
|-------0-2-3-----------3-2-0-------0-2-3-------------------3-2-0-|
|-0-2-3-----------------------3-2-0-------------------------------|
|-----------------------------------------------------------------|


  Gtrs III, IV
  W          S T T T T T T T T T T T T T T S T T T T S T T T T T T T T
|----------|------------------------------------------------------------|
|----------|------------------------------------------------------------|
|----------|------------------------------------------------------------|
|-3--------|-2-----------------------------2---------2------------------|
|-3--------|-0-0-0-0-0-0-0-0-0-0-0-0-0-0-0-0-0-0-0-0-0-0-0-0-0-0-0-0-0--|
|-1--------|------------------------------------------------------------|


  W          H    Q  Q    E H..
|----------|------------|----------|
|----------|------------|----------|
|----------|------------|----------|
|-3--------|-2----3--5--|-2--------|
|-3--------|-2----3--5--|-2--------|
|-1--------|-0----1--3--|-0--------|


  S T T T T T T T T T T T T T T S T T T T S T T T T T T T T   W
|-----------------------------------------------------------|------|
|-----------------------------------------------------------|------|
|-----------------------------------------------------------|------|
|-5-----------------------------5---------5-----------------|-3----|
|-3-3-3-3-3-3-3-3-3-3-3-3-3-3-3-3-3-3-3-3-3-3-3-3-3-3-3-3-3-|-3----|
|-----------------------------------------------------------|-1----|


  W          W          W          W
|----------|----------|----------|------|
|----------|----------|----------|------|
|----------|-2--------|-5--------|------|
|-5--------|-2--------|-5--------|-3----|
|-5--------|-0--------|-3--------|-3----|
|-3--------|----------|----------|-1----|


  Gtr I
  H.                                  E S T T
|---------------------------------------------||
|-----------------------------------------1-3-||
|---------------------------------------2-----||
|-------------------------------------0-------||
|---------------------------------------------||
|---------------------------------------------||
|
| Gtrs III, IV
| S  T T T T T T T T T T T T T T E Q.
|---------------------------------------------||
|---------------------------------------------||
|---------------------------------------------||
|--------------------------------5------------||
|-5------------------------------5------------||
|-3--3-3-3-3-3-3-3-3-3-3-3-3-3-3-3------------||


 Break Solo
  Q=146
  W                  +H.             E    E
|------------------|------------------------|
|-5----------------|-(5)------------[3]b5r1-|
|------------------|------------------------|
|------------------|------------------------|
|------------------|------------------------|
|------------------|------------------------|
|
| Gtr II
| W                  +W
|------------------|------------------------|
|------------------|------------------------|
|-2----------------|-(2)--------------------|
|-2----------------|-(2)--------------------|
|-0----------------|-(0)--------------------|
|------------------|------------------------|
|
| Gtr V
| E S S E Q  E E E    E  S S E Q  E  E    E
|-0-0-0-0-0--0-0-0-|--0--0-0-0-0--0--0----0-|
|-1-1-1-1-1--1-1-1-|--1--1-1-1-1--1--1----1-|
|-2-2-2-2-2--2-2-2-|--2--2-2-2-2--2--2----2-|
|-2-2-2-2-2--2-2-2-|--2--2-2-2-2--2--2----2-|
|------------------|------------------------|
|------------------|------------------------|


   Q.        Q   E E E    E. E. H    +E
|----------------------|-------------------|
|--1-------------------|-------------------|
|-----------[2]--0-----|-------------------|
|------------------2-0-|--------2----(2)---|
|----------------------|--3--5-------------|
|----------------------|-------------------|
|
| +W                     +W
|----------------------|-------------------|
|----------------------|-------------------|
|-(2)------------------|-(2)---------------|
|-(2)------------------|-(2)---------------|
|-(0)------------------|-(0)---------------|
|----------------------|-------------------|
|
|  E  S S E  Q   E E E    E. E. H    +E
|--0--0-0-0--0---0-0-0-|--------0----(0)---|
|--1--1-1-1--1---1-1-1-|--------0----(0)---|
|--2--2-2-2--2---2-2-2-|-----2-------------|
|--2--2-2-2--2---2-2-2-|--3----------------|
|----------------------|-------------------|
|----------------------|-------------------|


                              ~~
  E.    +S  +H       E    E   H.            S S S S
|---------------------------|-----------------------|
|-3b5---(3)-(3)------1pb3r==|=1-------------3p1-3p1-|
|-------------------------2-|-----------------------|
|---------------------------|-----------------------|
|---------------------------|-----------------------|
|---------------------------|-----------------------|
|
| Gtr V
| E   S  S   E  Q  E E    E   E  S S E Q  E E   E
|-0---0--0---0--0--0-0----0-|-0--0-0-0-0--0-0---0---|
|-1---1--1---1--1--1-1----1-|-1--1-1-1-1--1-1---1---|
|-2---2--2---2--2--2-2----2-|-2--2-2-2-2--2-2---2---|
|-2---2--2---2--2--2-2----2-|-2--2-2-2-2--2-2---2---|
|---------------------------|-----------------------|
|---------------------------|-----------------------|


                                    ~~~~~~~~~~~~
   Q.         S S S S S E.   S S    Q.      +Q.   Q
|--------------------------------|-------------------||
|-[3]b5--------------------------|-[8]b10---(8)------||
|----------------------------7-5-|-------------------||
|-------------7p0-7p0-7p0--------|-------------------||
|--------------------------------|-------------------||
|--------------------------------|-------------------||
|
|  E    S S E Q       E    E E      W
|--0----0-0-0-0-------0----0-0---|--0----------------||
|--1----1-1-1-1-------1----1-1---|--1----------------||
|--2----2-2-2-2-------2----2-2---|--2----------------||
|--2----2-2-2-2-------2----2-2---|--2----------------||
|--------------------------------|-------------------||
|--------------------------------|-------------------||


 Acoustic
  Gtr V
  E S S E Q  E E E   E S S E Q  E E E   E S S E Q  E E E   E. E. H    +E
|-0-0-0-0-0--0-0-0-|-0-0-0-0-0--0-0-0-|-0-0-0-0-0--0-0-0-|-------0----(0)-|
|-1-1-1-1-1--1-1-1-|-1-1-1-1-1--1-1-1-|-1-1-1-1-1--1-1-1-|-------0----(0)-|
|-2-2-2-2-2--2-2-2-|-2-2-2-2-2--2-2-2-|-2-2-2-2-2--2-2-2-|----2-----------|
|-2-2-2-2-2--2-2-2-|-2-2-2-2-2--2-2-2-|-2-2-2-2-2--2-2-2-|-3--------------|
|------------------|------------------|------------------|----------------|
|------------------|------------------|------------------|----------------|


  E S S E Q  E E E   E S S E Q  E E E   E S S E Q  E E E   E. E. E H
|-0-0-0-0-0--0-0-0-|-0-0-0-0-0--0-0-0-|-0-0-0-0-0--0-0-0-|--------------||
|-1-1-1-1-1--1-1-1-|-1-1-1-1-1--1-1-1-|-1-1-1-1-1--1-1-1-|--------------||
|-2-2-2-2-2--2-2-2-|-2-2-2-2-2--2-2-2-|-2-2-2-2-2--2-2-2-|----2---------||
|-2-2-2-2-2--2-2-2-|-2-2-2-2-2--2-2-2-|-2-2-2-2-2--2-2-2-|-3-----3------||
|------------------|------------------|------------------|---------2----||
|------------------|------------------|------------------|--------------||


  Q.   Q.   E E   Q.   Q.   E E   Q.   Q.   E E   Q.   Q.   E E
|---------------|---------------|---------------|---------------|
|---------------|---------------|---------------|---------------|
|-7----7----9-7-|-7----7----9-7-|-5----5----9-5-|-5----5----9-5-|
|---------------|---------------|---------------|---------------|
|---------------|---------------|---------------|---------------|
|---------------|---------------|---------------|---------------|


  Q.   Q.   E E   Q.   Q.   E E   Q.   Q.   E E   Q.   Q.   E E
|---------------|---------------|---------------|---------------||
|---------------|---------------|---------------|---------------||
|-7----7----9-7-|-7----7----9-7-|-5----5----9-5-|-5----5----9-5-||
|---------------|---------------|---------------|---------------||
|---------------|---------------|---------------|---------------||
|---------------|---------------|---------------|---------------||


 Solo 1
  Gtr I
   ~~~~~~~~~~~~~~~~~~~~~
   H.               +E   S  S     Q.        E E  E E E
|-----------------------------|------------------------|
|-----------------------------|------------------------|
|-12b14------------(12)-12-10-|-[14]-------12---10---9-|
|-----------------------------|------------------------|
|-----------------------------|------------------------|
|-----------------------------|------------------------|
|
| Gtr V
|  E    S S E Q  E   E   E        E  S S E  Q    E E E
|--0----0-0-0-0--0---0---0----|---0--0-0-0--0----0-0-0-|
|--1----1-1-1-1--1---1---1----|---1--1-1-1--1----1-1-1-|
|--2----2-2-2-2--2---2---2----|---2--2-2-2--2----2-2-2-|
|--2----2-2-2-2--2---2---2----|---2--2-2-2--2----2-2-2-|
|-----------------------------|------------------------|
|-----------------------------|------------------------|
|
| Gtrs III, IV
|  W                             +W
|-----------------------------|------------------------|
|-----------------------------|------------------------|
|--2--------------------------|--(2)-------------------|
|--2--------------------------|--(2)-------------------|
|--0--------------------------|--(0)-------------------|
|-----------------------------|------------------------|


      ~~
  S S H.            S S    E.  E.  E E.  E.   E
|-----------------------|------------8--10----8--|
|-----------------------|--8--10--12-------------|
|-9-7-9-------------7-9-|------------------------|
|-----------------------|------------------------|
|-----------------------|------------------------|
|-----------------------|------------------------|
|
| E   S  S E Q  E E E      H.               Q
|-0---0--0-0-0--0-0-0---|--0----------------0----|
|-1---1--1-1-1--1-1-1---|--1----------------0----|
|-2---2--2-2-2--2-2-2---|--2----------------2----|
|-2---2--2-2-2--2-2-2---|--2----------------2----|
|-----------------------|------------------------|
|-----------------------|------------------------|
|
| W                       +W
|-----------------------|------------------------|
|-----------------------|------------------------|
|-2---------------------|-(2)--------------------|
|-2---------------------|-(2)--------------------|
|-0---------------------|-(0)--------------------|
|-----------------------|------------------------|


   ~~~~~~~~~~~~~~~~~~                  ~~~
   H             +E   E E  E    S   S  H.            E
|-10b12---------(10)-10------|-------------------------|
|-------------------------13-|-15p=13------------------|
|----------------------------|--------14---------------|
|----------------------------|-------------------------|
|----------------------------|-------------------------|
|----------------------------|-------------------------|
|
|  E    S S E Q       E E  E    E      S  S E Q  E E E
|--0----0-0-0-0-------0-0--0-|--0------0--0-0-0--0-0-0-|
|--1----1-1-1-1-------1-1--1-|--1------1--1-1-1--1-1-1-|
|--2----2-2-2-2-------2-2--2-|--2------2--2-2-2--2-2-2-|
|--2----2-2-2-2-------2-2--2-|--2------2--2-2-2--2-2-2-|
|----------------------------|-------------------------|
|----------------------------|-------------------------|
|
|  W                           +W
|----------------------------|-------------------------|
|----------------------------|-------------------------|
|--2-------------------------|-(2)---------------------|
|--2-------------------------|-(2)---------------------|
|--0-------------------------|-(0)---------------------|
|----------------------------|-------------------------|


                                          ~~~~~~~~~~~~
  E  E   E  E  E  Q    S  S    Q       E  H       +E
|---------------------------|-------------------------||
|---------------------------|-------------------------||
|---14-----14-12------------|-------------------------||
|----------------14---12----|-12------14--------------||
|------------------------15-|------------12------(12)-||
|---------------------------|-------------------------||
|
| E  S S E  Q     E E  E       E  S S  E  Q  E E   E
|-0--0-0-0--0-----0-0--0----|--0--0-0--0--0--0-0---0--||
|-1--1-1-1--1-----1-1--1----|--1--1-1--1--1--1-1---1--||
|-2--2-2-2--2-----2-2--2----|--2--2-2--2--2--2-2---2--||
|-2--2-2-2--2-----2-2--2----|--2--2-2--2--2--2-2---2--||
|---------------------------|-------------------------||
|---------------------------|-------------------------||
|
| W                           +W
|---------------------------|-------------------------||
|---------------------------|-------------------------||
|-2-------------------------|-(2)---------------------||
|-2-------------------------|-(2)---------------------||
|-0-------------------------|-(0)---------------------||
|---------------------------|-------------------------||


 Solo 2
   E  E  E  E  E  E  E  E    E  E  E  E  E  E  E  E
|-------------------------|-------------------------|
|-------------------------|-------------------------|
|-------------------------|-------------------12----|
|----------10-12-14-12-10-|----------10-12-14----14-|
|-10-12-10----------------|-10-12-10----------------|
|-------------------------|-------------------------|
|
| Gtrs III, IV
|  Q     E  E  E  E  E  E    Q     E  E  E  E  E  E
|-------------------------|-------------------------|
|-------------------------|-------------------------|
|-------------------------|-------------------------|
|--2----------------------|--2----------------------|
|--0-----0--0--0--0--0--0-|--0-----0--0--0--0--0--0-|
|-------------------------|-------------------------|


   E  E  E  E  E  E  E  E    E  E  E  S  E.  Q.
|-------------------------|-----------------------|
|-------------------13----|-13-13-15-13-15--17----|
|----------12-14-14----14-|-----------------------|
|-14-12-14----------------|-----------------------|
|-------------------------|-----------------------|
|-------------------------|-----------------------|
|
|  Q     E  E  E  E  E  E    W
|-------------------------|-----------------------|
|-------------------------|-----------------------|
|-------------------------|-----------------------|
|--2----------------------|--3--------------------|
|--0-----0--0--0--0--0--0-|--3--------------------|
|-------------------------|--1--------------------|


   |--3--|  |--3--|  |--3--|  |--3--|  |--3--|  |--3--|  |--3--|  |--3--|
   S  S  S  S  S  S  S  S  S  S  S  S  S  S  S  S  S  S  S  S  S  S  S  S
|-17p12----------12-17p12----17p12----------12-17p12----17p12----------12-|
|-------13----13----------13-------13----13----------13-------13----13----|
|----------14-------------------------14-------------------------14-------|
|-------------------------------------------------------------------------|
|-------------------------------------------------------------------------|
|-------------------------------------------------------------------------|
|
|  Q                 E        E        E        E        E        E
|-------------------------------------------------------------------------|
|-------------------------------------------------------------------------|
|-------------------------------------------------------------------------|
|--2----------------------------------------------------------------------|
|--0-----------------0--------0--------0--------0--------0--------0-------|
|-------------------------------------------------------------------------|


   |--3--|  |--3--|  |--3--|  |--3--|  |--3--|  |--3--|  |--3--|  |--3--|
   S  S  S  S  S  S  S  S  S  S  S  S  S  S  S  S  S  S  S  S  S  S  S  S
|-17p12----------12-17p12----17p12----------12-17p12----17p12----------12-|
|-------13----13----------13-------13----13----------13-------13----13----|
|----------14-------------------------14-------------------------14-------|
|-------------------------------------------------------------------------|
|-------------------------------------------------------------------------|
|-------------------------------------------------------------------------|
|
| Gtr II
|  |--3--|  |--3--|  |--3--|  |--3--|  |--3--|  |--3--|  |--3--|  |--3--|
|  S  S  S  S  S  S  S  S  S  S  S  S  S  S  S  S  S  S  S  S  S  S  S  S
|-20p17----------17-20p17----20p17----------17-20p17----20p17----------17-|
|-------17----17----------17-------17----17----------17-------17----17----|
|----------17-------------------------17-------------------------17-------|
|-------------------------------------------------------------------------|
|-------------------------------------------------------------------------|
|-------------------------------------------------------------------------|
|
| Gtrs III, IV
|  Q                 E        E        E        E        E        E
|-------------------------------------------------------------------------|
|-------------------------------------------------------------------------|
|-------------------------------------------------------------------------|
|--2----------------------------------------------------------------------|
|--0-----------------0--------0--------0--------0--------0--------0-------|
|-------------------------------------------------------------------------|


   |--3--|  |--3--|  |--3--|  |--3--|  |--3--|  |--3--|  |--3--|  |--3--|
   S  S  S  S  S  S  S  S  S  S  S  S  S  S  S  S  S  S  S  S  S  S  S  S
|-20p17----------17-20p17----20p17----------17-20p17----20p17----------17-|
|-------20-17-20----------20-------20-17-20----------20-------20-17-20----|
|-------------------------------------------------------------------------|
|-------------------------------------------------------------------------|
|-------------------------------------------------------------------------|
|-------------------------------------------------------------------------|
|
|  |--3--|  |--3--|  |--3--|  |--3--|  |--3--|  |--3--|  |--3--|  |--3--|
|  S  S  S  S  S  S  S  S  S  S  S  S  S  S  S  S  S  S  S  S  S  S  S  S
|-20p17----------17-20p17----20p17----------17-20p17----20p17----------17-|
|-------17----17----------17-------17----17----------17-------17----17----|
|----------17-------------------------17-------------------------17-------|
|-------------------------------------------------------------------------|
|-------------------------------------------------------------------------|
|-------------------------------------------------------------------------|
|
|  Q                 E        E        E        E        E        E
|-------------------------------------------------------------------------|
|-------------------------------------------------------------------------|
|-------------------------------------------------------------------------|
|--2----------------------------------------------------------------------|
|--0-----------------0--------0--------0--------0--------0--------0-------|
|-------------------------------------------------------------------------|


   S  S  E  E  T  T  T  T   S  S  S  S S  S  S  S
|-13s20-13s17-22-22-22-22\------------------------||
|--------------------------22s12s17-17s5-10-12-13s||
|-------------------------------------------------||
|-------------------------------------------------||
|-------------------------------------------------||
|-------------------------------------------------||
|
| Gtrs III, IV
|  W
|-------------------------------------------------||
|-------------------------------------------------||
|-------------------------------------------------||
|--3----------------------------------------------||
|--3----------------------------------------------||
|--1----------------------------------------------||


 Solo 3
   E.    E.    E  E.    E.    S  S    H.             E  E
|----------------------------------|----------------------|
|-17----15-------------------------|----------------------|
|-------------14-16----12----------|----------------------|
|----------------------------14p12-|-14------------/17-14-|
|----------------------------------|
            
Submit corrections


        Prepare For War lessons Hard to play? Try these video lessons and learn fast Prepare For War lessons
        
↑ Back to top | Tablatures and chords for acoustic guitar and electric guitar, ukulele, drums are parodies/interpretations of the original songs. You may use it for private study, scholarship, research or language learning purposes only