» » »

Dragonforce - My Spirit Will Go On Tabs

Artists:  A B C D E F G H I J K L M N O P Q R S T U V W X Y Z # 

My Spirit Will Go On Tabs

(ver. 3) Click to play this song!
Dragonforce
 Rating:
4/5 (4 votes)

 My Spirit Will Go On lessons Tabs too difficult? Try these video lessons and learn fast
 
                
MY SPIRIT WILL GO ON
As recorded by DragonForce
(From the 2004 Album SONIC FIRESTORM)

	

Words by ZP Threart and Sam Totman Music by Sam Totman

Gtr I (E A D G B E) - 'Clean'
Gtr II (E A D G B E) - 'Lead'
Gtr III (E A D G B E) - 'Rhythm'
Gtr IV (E A D G B E) - 'Main Keyboards'

 Intro
  Q=200
 4/4
  Gtr I
   E E E E E E E E     E  E E E E E E E
|------------------|--------------------|
|------------------|--------------------|
|------------------|--------------------|
|--2-----2-----2---|---4------4-----4---|
|----2-----2-------|------2-----2-------|
|------0-----0---0-|--------0-----0---0-|
|
| Gtr IV
|  W                  +W
|------------------|--------------------|
|-12---------------|-(12)---------------|
|--9---------------|--(9)---------------|
|------------------|--------------------|
|------------------|--------------------|
|------------------|--------------------|


    E  E E E E E E E     E  E E E E E E E
|--------------------|--------------------|
|--------------------|--------------------|
|---0------0-----0---|--------------------|
|--------------------|---4------0-----4---|
|------2-----2-------|------2-----2-------|
|--------0-----0---0-|--------0-----0---0-|
|
|  +W                   +W
|--------------------|--------------------|
|-(12)---------------|-(12)---------------|
|--(9)---------------|--(9)---------------|
|--------------------|--------------------|
|--------------------|--------------------|
|--------------------|--------------------|


    E  E E E E E E E     E  E E E E E E E
|--------------------|--------------------|
|--------------------|--------------------|
|--------------------|--------------------|
|---2------2-----2---|---4------4-----4---|
|------2-----2-------|------2-----2-------|
|--------0-----0---0-|--------0-----0---0-|
|
|  +W                   +W
|--------------------|--------------------|
|-(12)---------------|-(12)---------------|
|--(9)---------------|--(9)---------------|
|--------------------|--------------------|
|--------------------|--------------------|
|--------------------|--------------------|


    E  E E E E E E E     E  E E E E E E E
|--------------------|--------------------|
|--------------------|--------------------|
|---0------0-----0---|--------------------|
|--------------------|---4------0-----4---|
|------2-----2-------|------2-----2-------|
|--------0-----0---0-|--------0-----0---0-|
|
|  +W                   +W
|--------------------|--------------------|
|-(12)---------------|-(12)---------------|
|--(9)---------------|--(9)---------------|
|--------------------|--------------------|
|--------------------|--------------------|
|--------------------|--------------------|


   E E E E E E E E     E  E E E E E E E
|------------------|--------------------|
|--0-----0-----0---|---1------1-----1---|
|------------------|--------------------|
|----2-----2-------|------2-----2-------|
|------2-----2---2-|--------2-----2---2-|
|------------------|--------------------|
|
|  W                  +W
|------------------|--------------------|
|-12---------------|-(12)---------------|
|--9---------------|--(9)---------------|
|------------------|--------------------|
|------------------|--------------------|
|------------------|--------------------|


    E  E E E E E E E     E  E E E E E E E
|--------------------|--------------------|
|---0------0-----0---|--------------------|
|--------------------|---2------0-----2---|
|------2-----2-------|------2-----2-------|
|--------2-----2---2-|--------2-----2---2-|
|--------------------|--------------------|
|
|  +W                   +W
|--------------------|--------------------|
|-(12)---------------|-(12)---------------|
|--(9)---------------|--(9)---------------|
|--------------------|--------------------|
|--------------------|--------------------|
|--------------------|--------------------|


    E  E E E E E E E     E  E E E E E E E
|--------------------|--------------------|
|---0------0-----0---|---1------1-----1---|
|--------------------|--------------------|
|------2-----2-------|------2-----2-------|
|--------2-----2---2-|--------2-----2---2-|
|--------------------|--------------------|
|
|  +W                   +W
|--------------------|--------------------|
|-(12)---------------|-(12)---------------|
|--(9)---------------|--(9)---------------|
|--------------------|--------------------|
|--------------------|--------------------|
|--------------------|--------------------|


  E E E E E E E E    E  E E E E E E E
|-----------------|-------------------|
|-0-----0-----0---|-------------------|
|-----------------|--2------0-----2---|
|---2-----2-------|-----2-----2-------|
|-----2-----2---2-|-------2-----2---2-|
|-----------------|-------------------|
|
| W                 +W
|-----------------|-------------------|
|-0---------------|-(0)---------------|
|-0---------------|-(0)---------------|
|-----------------|-------------------|
|-----------------|-------------------|
|-----------------|-------------------|


   E  E E  E  E   E  E    E    E E E E E   E E   E
|---------------------------|----------------------|
|---------------------------|----------------------|
|---------------------------|----------------------|
|--2-------2---------2------|--4-----4-------4-----|
|-----2-------2-------------|----2-----2-----------|
|-------0---------0-------0-|------0-------0-----0-|
|
| Gtr III
|  E  E E  E  S S E  S  S E    E E E E S S E S S E
|---------------------------|----------------------|
|---------------------------|----------------------|
|---------------------------|----------------------|
|---------------------------|----------------------|
|--2--2-2--2--2-2-2--2--2-2-|--2-2-2-2-2-2-2-2-2-2-|
|--0--0-0--0--0-0-0--0--0-0-|--0-0-0-0-0-0-0-0-0-0-|
|
| Gtr IV
|  Q.      Q.        Q         W
|-15------14--------15------|-17-------------------|
|--8-------7---------8------|-10-------------------|
|--9------(9)-------(9)-----|-11-------------------|
|--5------(5)-------(5)-----|--7-------------------|
|---------------------------|----------------------|
|---------------------------|----------------------|


   E    E E   E  E   E   E    E    E    E E   E  E   E   E    E
|-------------------------------|---------------------------------|
|-------------------------------|---------------------------------|
|--0----------0----------0------|---------------------------------|
|-------------------------------|--4----------0----------4--------|
|-------2--------2--------------|-------2--------2----------------|
|---------0----------0--------0-|---------0----------0--------0---|
|
|  S  S E E   E  S S E   S  S E    S  S E E   E  S S E   S  S E
|-------------------------------|---------------------------------|
|-------------------------------|---------------------------------|
|-------------------------------|---------------------------------|
|-------------------------------|---------------------------------|
|--2--2-2-2---2--2-2-2---2--2-2-|--2--2-2-2---2--2-2-2---2--2-2---|
|--0--0-0-0---0--0-0-0---0--0-0-|--0--0-0-0---0--0-0-0---0--0-0---|
|
|  Q.         Q.         Q         Q.         Q.         Q
|-19---------17---------19------|-17---------15---------17--------|
|-12---------10---------12------|-10----------8---------10--------|
|-12--------(12)-------(12)-----|-11--------(11)-------(11)-------|
|--9---------(9)--------(9)-----|--7---------(7)--------(7)-------|
|-------------------------------|---------------------------------|
|-------------------------------|---------------------------------|


   E    E E  E  E   E  E    E    E   E E E E   E E   E
|-----------------------------|------------------------|
|-----------------------------|------------------------|
|-----------------------------|------------------------|
|--2---------2---------2------|--4-------4-------4-----|
|-------2-------2-------------|------2-----2-----------|
|---------0---------0-------0-|--------0-------0-----0-|
|
|  S  S E E  E  S S E  S  S E    S S E E E S S E S S E
|-----------------------------|------------------------|
|-----------------------------|------------------------|
|-----------------------------|------------------------|
|-----------------------------|------------------------|
|--2--2-2-2--2--2-2-2--2--2-2-|--2-2-2-2-2-2-2-2-2-2-2-|
|--0--0-0-0--0--0-0-0--0--0-0-|--0-0-0-0-0-0-0-0-0-0-0-|
|
|  Q.        Q.        Q         W
|-15--------14--------15------|-17---------------------|
|--8---------7---------8------|-10---------------------|
|--9--------(9)-------(9)-----|-11---------------------|
|--5--------(5)-------(5)-----|--7---------------------|
|-----------------------------|------------------------|
|-----------------------------|------------------------|


   E    E E   E  E   E   E    E    E    E E   E  E   E   E    E
|-------------------------------|-------------------------------|
|-------------------------------|-------------------------------|
|--0----------0----------0------|-------------------------------|
|-------------------------------|--4----------0----------4------|
|-------2--------2--------------|-------2--------2--------------|
|---------0----------0--------0-|---------0----------0--------0-|
|
|  S  S E E   E  S S E   S  S E    S  S E E   E  S S E   S  S E
|-------------------------------|-------------------------------|
|-------------------------------|-------------------------------|
|-------------------------------|-------------------------------|
|-------------------------------|-------------------------------|
|--2--2-2-2---2--2-2-2---2--2-2-|--2--2-2-2---2--2-2-2---2--2-2-|
|--0--0-0-0---0--0-0-0---0--0-0-|--0--0-0-0---0--0-0-0---0--0-0-|
|
|  Q.         Q.         Q         Q.         Q.         Q
|-19---------17---------19------|-17---------15---------17------|
|-12---------10---------12------|-10----------8---------10------|
|-12--------(12)-------(12)-----|-11--------(11)-------(11)-----|
|--9---------(9)--------(9)-----|--7---------(7)--------(7)-----|
|-------------------------------|-------------------------------|
|-------------------------------|-------------------------------|


   E  E E  E    E E  E    E    E   E E E   E E E   E
|---------------------------|------------------------|
|--0-------0---------0------|--1-------1-------1-----|
|---------------------------|------------------------|
|-----2---------2-----------|------2-------2---------|
|-------2---------2-------2-|--------2-------2-----2-|
|---------------------------|------------------------|
|
|  E  E E  S  S E E  S  S E    S S E E S S E E S S E
|---------------------------|------------------------|
|---------------------------|------------------------|
|---------------------------|------------------------|
|---------------------------|------------------------|
|--2--2-2--2--2-2-2--2--2-2-|--2-2-2-2-2-2-2-2-2-2-2-|
|--0--0-0--0--0-0-0--0--0-0-|--0-0-0-0-0-0-0-0-0-0-0-|
|
|  Q.      Q.        Q         W
|-15------14--------15------|-17---------------------|
|--8-------7---------8------|-10---------------------|
|--9------(9)-------(9)-----|-11---------------------|
|--5------(5)-------(5)-----|--7---------------------|
|---------------------------|------------------------|
|---------------------------|------------------------|


   E    E E   E    E E   E    E    E    E E   E    E E   E    E
|-------------------------------|--------------------------------|
|--0----------0----------0------|--------------------------------|
|-------------------------------|--2----------0----------2-------|
|-------2----------2------------|-------2----------2-------------|
|---------2----------2--------2-|---------2----------2--------2--|
|-------------------------------|--------------------------------|
|
|  S  S E E   S  S E E   S  S E    S  S E E   S  S E E   S  S E
|-------------------------------|--------------------------------|
|-------------------------------|--------------------------------|
|-------------------------------|--------------------------------|
|-------------------------------|--------------------------------|
|--2--2-2-2---2--2-2-2---2--2-2-|--2--2-2-2---2--2-2-2---2--2-2--|
|--0--0-0-0---0--0-0-0---0--0-0-|--0--0-0-0---0--0-0-0---0--0-0--|
|
|  Q.         Q.         Q         Q.         Q.         Q
|-19---------17---------19------|-17---------15---------17-------|
|-12---------10---------12------|-10----------8---------10-------|
|-12--------(12)-------(12)-----|-11--------(11)-------(11)------|
|--9---------(9)--------(9)-----|--7---------(7)--------(7)------|
|-------------------------------|--------------------------------|
|-------------------------------|--------------------------------|


   E    E E  E    E E  E    E    E   E E E   E E E   E
|-----------------------------|------------------------|
|-----------------------------|------------------------|
|-----------------------------|------------------------|
|--2---------2---------2------|--4-------4-------4-----|
|-------2---------2-----------|------2-------2---------|
|---------0---------0-------0-|--------0-------0-----0-|
|
|  S  S E E  S  S E E  S  S E    S S E E S S E E S S E
|-----------------------------|------------------------|
|-----------------------------|------------------------|
|-----------------------------|------------------------|
|-----------------------------|------------------------|
|--2--2-2-2--2--2-2-2--2--2-2-|--2-2-2-2-2-2-2-2-2-2-2-|
|--0--0-0-0--0--0-0-0--0--0-0-|--0-0-0-0-0-0-0-0-0-0-0-|
|
|  Q.        Q.        Q         W
|-15--------14--------15------|-17---------------------|
|--8---------7---------8------|-10---------------------|
|--9--------(9)-------(9)-----|-11---------------------|
|--5--------(5)-------(5)-----|--7---------------------|
|-----------------------------|------------------------|
|-----------------------------|------------------------|


   E    E E   E    E E   E    E    E    E E   E    E E   E    E
|-------------------------------|-------------------------------|
|-------------------------------|-------------------------------|
|--0----------0----------0------|-------------------------------|
|-------------------------------|--4----------0----------4------|
|-------2----------2------------|-------2----------2------------|
|---------0----------0--------0-|---------0----------0--------0-|
|
|  S  S E E   S  S E E   S  S E    S  S E E   S  S E E   S  S E
|-------------------------------|-------------------------------|
|-------------------------------|-------------------------------|
|-------------------------------|-------------------------------|
|-------------------------------|-------------------------------|
|--2--2-2-2---2--2-2-2---2--2-2-|--2--2-2-2---2--2-2-2---2--2-2-|
|--0--0-0-0---0--0-0-0---0--0-0-|--0--0-0-0---0--0-0-0---0--0-0-|
|
|  Q.         Q.         Q         Q.         Q.         Q
|-19---------17---------19------|-17---------15---------17------|
|-12---------10---------12------|-10----------8---------10------|
|-12--------(12)-------(12)-----|-11--------(11)-------(11)-----|
|--9---------(9)--------(9)-----|--7---------(7)--------(7)-----|
|-------------------------------|-------------------------------|
|-------------------------------|-------------------------------|


  Gtr II
   W                     H.          +E. S
|--------------------|---------------------|
|--------------------|---------------------|
|--------------------|---------------------|
|--------------------|--16----------(16)-7-|
|--------------------|--14----------(14)-5-|
|--------------------|---------------------|
|
|  Q   Q    Q    Q       Q   Q   Q    Q
|--------------------|---------------------|
|--------------------|---------------------|
|--4--(4)--(4)--(4)--|--(4)--4---5----7----|
|--4--(4)--(4)--(4)--|--(4)--4---5----7----|
|--2---2----2----2---|---2---2---3----5----|
|--------------------|---------------------|
|
|  W                    +H       Q    Q
|-19-----------------|-(19)-----20---22----|
|-12-----------------|-(12)-----13---15----|
|-11-----------------|-(11)-----12---14----|
|--9-----------------|--(9)-----10---12----|
|--------------------|---------------------|
|--------------------|---------------------|


   Q.          Q.            Q           Q.          Q.          Q
|------------------------------------|-------------------------------------|
|------------------------------------|--------------10----------12---------|
|--7b9---------9------------11-------|--12---------------------------------|
|------------------------------------|-------------------------------------|
|------------------------------------|-------------------------------------|
|------------------------------------|-------------------------------------|
|
|  E   S S S S S  S S S S S  S S S S     E  S S S S  E  S S S S  S S S S
|------------------------------------|-------------------------------------|
|------------------------------------|-------------------------------------|
|------------------------------------|-------------------------------------|
|--9---------------------------------|---9-----------9---------------------|
|--7---7-7-7-7-7--7-7-7-7-7--7-7-7-7-|---7--7-7-7-7--7--7-7-7-7--7-7-7-7---|
|------------------------------------|-------------------------------------|
|
|  W                                    +W
|-19---------------------------------|-(19)--------------------------------|
|--5---------------------------------|--(5)--------------------------------|
|------------------------------------|-------------------------------------|
|--9---------------------------------|--(9)--------------------------------|
|--7---------------------------------|--(7)--------------------------------|
|------------------------------------|-------------------------------------|


    Q.      Q.    Q      H      Q   Q
|--------------------|-----------------|
|--10b12---10--------|--12---------10--|
|----------------12--|---------12------|
|--------------------|-----------------|
|--------------------|-----------------|
|--------------------|-----------------|
|
|   W                   +W
|--------------------|-----------------|
|--------------------|-----------------|
|---9----------------|--(9)------------|
|---9----------------|--(9)------------|
|---7----------------|--(7)------------|
|--------------------|-----------------|
|
|  +W                   +W
|-(19)---------------|-(19)------------|
|--(5)---------------|--(5)------------|
|--------------------|-----------------|
|--(9)---------------|--(9)------------|
|--(7)---------------|--(7)------------|
|--------------------|-----------------|


   Q.            Q.            Q           H             Q        Q
|--------------------------------------|------------------------------------|
|-10b12---------10---------------------|--12---------------------10---------|
|-----------------------------12-------|----------------12------------------|
|--------------------------------------|------------------------------------|
|--------------------------------------|------------------------------------|
|--------------------------------------|------------------------------------|
|
|  E    S S S S  S  S S S S S  S S S S     E  S S S S E  S S S S  S S S S
|--------------------------------------|------------------------------------|
|--------------------------------------|------------------------------------|
|--------------------------------------|------------------------------------|
|--7-----------------------------------|---7----------7---------------------|
|--5----5-5-5-5--5--5-5-5-5-5--5-5-5-5-|---5--5-5-5-5-5--5-5-5-5--5-5-5-5---|
|--------------------------------------|------------------------------------|
|
|  W                                      +W
|-17-----------------------------------|-(17)-------------------------------|
|--3-----------------------------------|--(3)-------------------------------|
|--------------------------------------|------------------------------------|
|--7-----------------------------------|--(7)-------------------------------|
|--5-----------------------------------|--(5)-------------------------------|
|--------------------------------------|------------------------------------|


   Q.      Q.    Q      Q.    Q.    Q
|-------------------|------------------|
|-10b12---10--------|--------------10--|
|---------------12--|--12----12--------|
|-------------------|------------------|
|-------------------|------------------|
|-------------------|------------------|
|
|  W                   +W
|-------------------|------------------|
|-------------------|------------------|
|--5----------------|--(5)-------------|
|--5----------------|--(5)-------------|
|--3----------------|--(3)-------------|
|-------------------|------------------|
|
|  W                   +H.          Q
|-15----------------|-(15)---------17--|
|--1----------------|--(1)----------3--|
|-------------------|------------------|
|--5----------------|--(5)----------7--|
|--3----------------|--(3)----------5--|
|-------------------|------------------|


   Q.          Q.            Q           Q.           Q.          Q
|------------------------------------|--------------[10]--------------------|
|------------------------------------|---------------------------12---------|
|--7b9---------9------------11-------|--12----------------------------------|
|------------------------------------|--------------------------------------|
|------------------------------------|--------------------------------------|
|------------------------------------|--------------------------------------|
|
|  E   S S S S S  S S S S S  S S S S     E  S S S S   E  S S S S  S S S S
|------------------------------------|--------------------------------------|
|------------------------------------|--------------------------------------|
|------------------------------------|--------------------------------------|
|--9---------------------------------|---9------------9---------------------|
|--7---7-7-7-7-7--7-7-7-7-7--7-7-7-7-|---7--7-7-7-7---7--7-7-7-7--7-7-7-7---|
|------------------------------------|--------------------------------------|
|
|  W                                    +W
|-19---------------------------------|-(19)---------------------------------|
|--5---------------------------------|--(5)---------------------------------|
|------------------------------------|--------------------------------------|
|--9---------------------------------|--(9)---------------------------------|
|--7---------------------------------|--(7)---------------------------------|
|------------------------------------|--------------------------------------|


   Q.      Q.      Q      H         Q   Q
|---------------------|--------------------|
|-13b15---12b13r==10--|-[10]b12--------10--|
|---------------------|------------12------|
|---------------------|--------------------|
|---------------------|--------------------|
|---------------------|--------------------|
|
|  W                     +W
|---------------------|--------------------|
|---------------------|--------------------|
|---------------------|--------------------|
|--5------------------|--(5)---------------|
|--5------------------|--(5)---------------|
|--3------------------|--(3)---------------|
|
|  W                     +W
|-19------------------|-(19)---------------|
|--8------------------|--(8)---------------|
|--7------------------|--(7)---------------|
|--5------------------|--(5)---------------|
|---------------------|--------------------|
|---------------------|--------------------|


   Q.            Q.            Q           H               Q        Q
|--------------------------------------|--------------------------------------|
|-10b12---------10---------------------|---8b10--------------------10---------|
|-----------------------------12-------|------------------12------------------|
|--------------------------------------|--------------------------------------|
|--------------------------------------|--------------------------------------|
|--------------------------------------|--------------------------------------|
|
|  E    S S S S  S  S S S S S  S S S S     E    S S S S E  S S S S  S S S S
|--------------------------------------|--------------------------------------|
|--------------------------------------|--------------------------------------|
|--------------------------------------|--------------------------------------|
|--7-----------------------------------|---7------------7---------------------|
|--5----5-5-5-5--5--5-5-5-5-5--5-5-5-5-|---5----5-5-5-5-5--5-5-5-5--5-5-5-5---|
|--------------------------------------|--------------------------------------|
|
|  W                                      +W
|-17-----------------------------------|-(17)---------------------------------|
|--3-----------------------------------|--(3)---------------------------------|
|--------------------------------------|--------------------------------------|
|--7-----------------------------------|--(7)---------------------------------|
|--5-----------------------------------|--(5)---------------------------------|
|--------------------------------------|--------------------------------------|


   Q.     Q.      Q         Q.      Q.      Q          Q   H.
|-----------------------|--------------------------|-------------||
|-10b12---8b10----------|--------------------------|-[12]--------||
|----------------11b12--|--11b12---11b12---[9]b11--|-------------||
|-----------------------|--------------------------|-------------||
|-----------------------|--------------------------|-------------||
|-----------------------|--------------------------|-------------||
|
|  W                       +W                          Q   H.
|-----------------------|--------------------------|-------------||
|-----------------------|--------------------------|-------------||
|--5--------------------|--(5)---------------------|-------------||
|--5--------------------|--(5)---------------------|---2---------||
|--3--------------------|--(3)---------------------|---2---------||
|-----------------------|--------------------------|---0---------||
|
|  W                       +W                          W
|-15--------------------|-(15)---------------------|-------------||
|--1--------------------|--(1)---------------------|-------------||
|-----------------------|--------------------------|-------------||
|--5--------------------|--(5)---------------------|-------------||
|--3--------------------|--(3)---------------------|-------------||
|-----------------------|--------------------------|-------------||


   Verse
    Gtrs II, III
    E S S S S E E S S S S E    E  S S S S E S S S S E E
||--------------------------|---------------------------|
||o-------------------------|---------------------------|
||--------------------------|---------------------------|
||--6-----------------------|--4----------6---------4-6-|
||o-4-4-4-4-4-4-7-4-4-4-4-4-|--4--4-4-4-4---4-4-4-4-----|
||--------------------------|---------------------------|
|
|   Gtr IV
|   W                         +W
||--------------------------|---------------------------|
||o-------------------------|---------------------------|
||--------------------------|---------------------------|
||--------------------------|---------------------------|
||o-4-----------------------|-(4)-----------------------|
||--------------------------|---------------------------|


   E  S S S S E E S S S S E    E  S S S S E S S S S Q
|---------------------------|--------------------------|
|---------------------------|--------------------------|
|---------------------------|--------------------------|
|---------------------------|--4----------6---------4--|
|--4--4-4-4-4-4-7-4-4-4-4-4-|--4--4-4-4-4-4-4-4-4-4-4--|
|---------------------------|--------------------------|
|
| +W                          +W
|---------------------------|--------------------------|
|---------------------------|--------------------------|
|---------------------------|--------------------------|
|---------------------------|--------------------------|
|-(4)-----------------------|-(4)----------------------|
|---------------------------|--------------------------|


  E S S S S E S S S S E   S S    E  S S S S E S S S S E E
|-----------------------------|--2----------4---------2-4-|
|-5-2---2---5-2---2---5---2---|-----2---2-----2---2-------|
|-----------------------------|---------------------------|
|-----------------------------|---------------------------|
|-----------------------------|---------------------------|
|-----------------------------|---------------------------|
|
| Gtr III
| E S S S S E E   S S S S E      E  S S S S E S S S S E E
|-----------------------------|---------------------------|
|-----------------------------|---------------------------|
|-----------------------------|---------------------------|
|-6---------------------------|--4----------6---------4-6-|
|-4-4-4-4-4-4-7---4-4-4-4-4---|--4--4-4-4-4---4-4-4-4-----|
|-----------------------------|---------------------------|
|
| Gtr IV
| W                             +W
|-----------------------------|---------------------------|
|-----------------------------|---------------------------|
|-----------------------------|---------------------------|
|-----------------------------|---------------------------|
|-4---------------------------|-(4)-----------------------|
|-----------------------------|---------------------------|


  S S S S S S S S S S S S S S S S   S S S S S S S S S S S S S S S S
|-4-4-2-2-0-0-2-2-0-0-----0-0-2-2-|-4-4-2-2-0-0-2-2-0-0-----0-0-2-2--|
|---------------------4-4---------|---------------------4-4----------|
|---------------------------------|----------------------------------|
|---------------------------------|----------------------------------|
|---------------------------------|----------------------------------|
|---------------------------------|----------------------------------|
|
| W                                 W
|---------------------------------|----------------------------------|
|---------------------------------|----------------------------------|
|-2-------------------------------|-4--------------------------------|
|-2-------------------------------|-4--------------------------------|
|-0-------------------------------|-2--------------------------------|
|---------------------------------|----------------------------------|
|
| W                                 W
|---------------------------------|----------------------------------|
|---------------------------------|----------------------------------|
|---------------------------------|----------------------------------|
|-2-------------------------------|-4--------------------------------|
|-0-------------------------------|-2--------------------------------|
|---------------------------------|----------------------------------|


  Gtrs II, III
  E S S S S E E S S S S E    E  S S S S E S S S S E E
|-------------------------|---------------------------|
|-------------------------|---------------------------|
|-------------------------|---------------------------|
|-6-----------------------|--4----------6---------4-6-|
|-4-4-4-4-4-4-7-4-4-4-4-4-|--4--4-4-4-4---4-4-4-4-----|
|-------------------------|---------------------------|
|
| Gtr IV
| W                         +W
|-------------------------|---------------------------|
|-------------------------|---------------------------|
|-------------------------|---------------------------|
|-------------------------|---------------------------|
|-4-----------------------|-(4)-----------------------|
|-------------------------|---------------------------|


   E  S S S S E E S S S S E    E  S S S S E S S S S Q
|---------------------------|--------------------------|
|---------------------------|--------------------------|
|---------------------------|--------------------------|
|---------------------------|--4----------6---------4--|
|--4--4-4-4-4-4-7-4-4-4-4-4-|--4--4-4-4-4-4-4-4-4-4-4--|
|---------------------------|--------------------------|
|
| +W                          +W
|---------------------------|--------------------------|
|---------------------------|--------------------------|
|---------------------------|--------------------------|
|---------------------------|--------------------------|
|-(4)-----------------------|-(4)----------------------|
|---------------------------|--------------------------|


  E S S S S E S S S S E   S S    E  S S S S E S S S S E E
|-----------------------------|--2----------4---------2-4-|
|-5-2---2---5-2---2---5---2---|-----2---2-----2---2-------|
|-----------------------------|---------------------------|
|-----------------------------|---------------------------|
|-----------------------------|---------------------------|
|-----------------------------|---------------------------|
|
| Gtr III
| E S S S S E E   S S S S E      E  S S S S E S S S S E E
|-----------------------------|---------------------------|
|-----------------------------|---------------------------|
|-----------------------------|---------------------------|
|-6---------------------------|--4----------6---------4-6-|
|-4-4-4-4-4-4-7---4-4-4-4-4---|--4--4-4-4-4---4-4-4-4-----|
|-----------------------------|---------------------------|
|
| Gtr IV
| W                             +W
|-----------------------------|---------------------------|
|-----------------------------|---------------------------|
|-----------------------------|---------------------------|
|-----------------------------|---------------------------|
|-4---------------------------|-(4)-----------------------|
|-----------------------------|---------------------------|


  S S S S S S S S S S S S S S S S   S S S S S S S S S S S S S S S S
|-4-4-2-2-0-0-2-2-0-0-----0-0-2-2-|-4-4-2-2-0-0-2-2-0-0-----0-0-2-2--|
|---------------------4-4---------|---------------------4-4----------|
|---------------------------------|----------------------------------|
|---------------------------------|----------------------------------|
|---------------------------------|----------------------------------|
|---------------------------------|----------------------------------|
|
| W                                 W
|---------------------------------|----------------------------------|
|---------------------------------|----------------------------------|
|-2-------------------------------|-4--------------------------------|
|-2-------------------------------|-4--------------------------------|
|-0-------------------------------|-2--------------------------------|
|---------------------------------|----------------------------------|
|
| W                                 W
|---------------------------------|----------------------------------|
|---------------------------------|----------------------------------|
|---------------------------------|----------------------------------|
|-2-------------------------------|-4--------------------------------|
|-0-------------------------------|-2--------------------------------|
|---------------------------------|----------------------------------|


  Gtrs II, III
   Q  S S S S S S S S S S S S     S  S S S S S S S S S S S S S S S
|-----------------------------|------------------------------------|
|-----------------------------|------------------------------------|
|-----------------------------|------------------------------------|
|--2--------------------------|------------------------------------|
|--0--0-0-0-0-0-0-0-0-0-0-0-0-|---0--0-0-0-0-0-0-0-0-0-0-0-0-0-0-0-|
|-----------------------------|------------------------------------|
|
| Gtr IV
|  W                             +W
|-21--------------------------|-(21)-------------------------------|
|-14--------------------------|-(14)-------------------------------|
|-----------------------------|------------------------------------|
|-----------------------------|------------------------------------|
|-----------------------------|------------------------------------|
|-----------------------------|------------------------------------|


   Q  Q  E Q  E    +E  E. S Q  E Q
|---------------|-------------------|
|---------------|-------------------|
|--6--4--6-6--6-|--(6)-4----6----6--|
|--6--4--6-6--6-|--(6)-4----6--6-6--|
|--4--4--4-4--4-|--(4)-4----4--4-4--|
|---------------|-------------------|
|
|  W               +W
|-24------------|-(24)--------------|
|-17------------|-(17)--------------|
|---------------|-------------------|
|---------------|-------------------|
|---------------|-------------------|
|---------------|-------------------|


   Q  S S S S S S S S S S S S
|-----------------------------|
|-----------------------------|
|-----------------------------|
|--2--------------------------|
|--0--0-0-0-0-0-0-0-0-0-0-0-0-|
|-----------------------------|
|
|  W
|-29--------------------------|
|-22--------------------------|
|-----------------------------|
|-----------------------------|
|-----------------------------|
|-----------------------------|


    S  S S S  S S S S  S S S S  S S S S    W           W
|---------------------------------------|-----------|-------||
|---------------------------------------|-----------|-------||
|---------------------------------------|--4--------|-------||
|---------------------------------------|--4--------|--4----||
|---0--0-0-0--0-0-0-0--0-0-0-0--0-0-0-0-|--2--------|--4----||
|---------------------------------------|-----------|--2----||
|
|  +Q         Q        Q        Q          W           W
|-(29)-------28-------26-------24-------|-21--------|-23----||
|-(22)-------21-------19-------17-------|-14--------|-16----||
|---------------------------------------|-----------|-------||
|---------------------------------------|-----------|-------||
|---------------------------------------|-----------|-------||
|---------------------------------------|-----------|-------||


 Pre-Chorus
  $
   W              W             E S S S S S S S S S S S S S S
|--------------|-------------|--------------------------------|
|--------------|-------------|--------------------------------|
|--2-----------|-------------|--------------------------------|
|--2-----------|--2----------|--9-----------------------------|
|--0-----------|--2----------|--7-7-7-7-7-7-7-7-7-7-7-7-7-7-7-|
|--------------|--0----------|--------------------------------|
|
|  H.       Q     H     H       W
|-21-------23--|-24----26----|-26-----------------------------|
|-14-------16--|-17----19----|-19-----------------------------|
|--------------|-------------|--------------------------------|
|--------------|-------------|--------------------------------|
|--------------|-------------|--------------------------------|
|--------------|-------------|--------------------------------|


   E S S S S E S S S S S S S S
|-------------------------------|
|-------------------------------|
|-------------------------------|
|--9---------9------------------|
|--7-7-7-7-7-7-7-7-7-7-7-7-7-7--|
|-------------------------------|
|
|  W
|-24----------------------------|
|-17----------------------------|
|-------------------------------|
|-------------------------------|
|-------------------------------|
|-------------------------------|


   W              W             E S S S S S S S S S S S S S S
|--------------|-------------|--------------------------------|
|--------------|-------------|--------------------------------|
|--2-----------|-------------|--------------------------------|
|--2-----------|--2----------|--9-----------------------------|
|--0-----------|--2----------|--7-7-7-7-7-7-7-7-7-7-7-7-7-7-7-|
|--------------|--0----------|--------------------------------|
|
|  H.       Q     H     H       W
|-21-------23--|-24----26----|-24-----------------------------|
|-14-------16--|-17----19----|-17-----------------------------|
|--------------|-------------|--------------------------------|
|--------------|-------------|--------------------------------|
|--------------|-------------|--------------------------------|
|--------------|-------------|--------------------------------|


    E  S S S S E S S S S S S S S
|---------------------------------|
|---------------------------------|
|---------------------------------|
|---9----------9------------------|
|---7--7-7-7-7-7-7-7-7-7-7-7-7-7--|
|---------------------------------|
|
|  +W
|-(24)----------------------------|
|-(17)----------------------------|
|---------------------------------|
|---------------------------------|
|---------------------------------|
|---------------------------------|


   W              W             W             W
|--------------|-------------|-------------|-------------|
|--------------|-------------|-------------|-------------|
|--2-----------|--4----------|--9----------|--6----------|
|--2-----------|--4----------|--7----------|--6----------|
|--0-----------|--2----------|--7----------|--4----------|
|--------------|-------------|-------------|-------------|
|
|  H.       Q     H     H       H     H       H     H
|-21-------23--|-24----26----|-29----28----|-26----24----|
|-14-------16--|-17----19----|-22----21----|-19----17----|
|--------------|-------------|-------------|-------------|
|--------------|-------------|-------------|-------------|
|--------------|-------------|-------------|-------------|
|--------------|-------------|-------------|-------------|


   Q   S S Q  S S  S S S S    Q  S S Q    S S S S S S     Q   H.        W
|--------------------------|--------------------------|---------------|------||
|--------------------------|--------------------------|---------------|------||
|--2-------2---------------|--2------2----------------|---4-----------|------||
|--2-------2---------------|--2------2----------------|---4-----------|------||
|--0---0-0-0--0-0--0-0-0-0-|--0--0-0-0----0-0-0-0-0-0-|---2-----------|------||
|--------------------------|--------------------------|---------------|------||
|
|  H.              Q          H         H                +Q   H.        W
|-21--------------23-------|-24--------26-------------|-(26)----------|------||
|-14--------------16-------|-17--------19-------------|-(19)----------|------||
|--------------------------|--------------------------|---------------|------||
|--------------------------|--------------------------|---------------|------||
|--------------------------|--------------------------|---------------|------||
|--------------------------|--------------------------|---------------|------||


 Chorus
   W           W           W           +W
|-----------|-----------|-----------|-------------|
|-----------|-----------|-----------|-------------|
|-----------|-----------|--9--------|--(9)--------|
|--7--------|--9--------|--9--------|--(9)--------|
|--7--------|--9--------|--7--------|--(7)--------|
|--5--------|--7--------|-----------|-------------|
|
| Gtr III
|  W           W           W           +W
|-----------|-----------|-----------|-------------|
|-----------|-----------|-----------|-------------|
|-----------|-----------|-----------|-------------|
|--7--------|--9--------|--2--------|--(2)--------|
|--7--------|--9--------|--2--------|--(2)--------|
|--5--------|--7--------|--0--------|--(0)--------|
|
| Gtr IV
|  W           W           W           +W
|-21--------|-23--------|-----------|-------------|
|-17--------|-16--------|-17--------|-(17)--------|
|-18--------|-16--------|-16--------|-(16)--------|
|-----------|-----------|-----------|-------------|
|-----------|-----------|-----------|-------------|
|-----------|-----------|-----------|-------------|


   W           W           W           +W
|-----------|-----------|-----------|---------|
|-----------|-----------|-----------|---------|
|-----------|-----------|--9--------|--(9)----|
|--7--------|--9--------|--9--------|--(9)----|
|--7--------|--9--------|--7--------|--(7)----|
|--5--------|--7--------|-----------|---------|
|
|  W           W           W           +W
|-----------|-----------|-----------|---------|
|-----------|-----------|-----------|---------|
|-----------|-----------|-----------|---------|
|--7--------|--9--------|--2--------|--(2)----|
|--7--------|--9--------|--2--------|--(2)----|
|--5--------|--7--------|--0--------|--(0)----|
|
|  W           W           W           +W
|-21--------|-23--------|-----------|---------|
|-17--------|-16--------|-17--------|-(17)----|
|-18--------|-16--------|-16--------|-(16)----|
|-----------|-----------|-----------|---------|
|-----------|-----------|-----------|---------|
|-----------|-----------|-----------|---------|


  Gtrs II, III
   W           W           W           W
|-----------|-----------|-----------|-------|
|-----------|-----------|-----------|-------|
|-----------|-----------|--9--------|--6----|
|--7--------|--9--------|--9--------|--6----|
|--7--------|--9--------|--7--------|--4----|
|--5--------|--7--------|-----------|-------|
|
| Gtr IV
|  W           W           W           W
|-21--------|-23--------|-----------|-------|
|-17--------|-16--------|-17--------|-17----|
|-18--------|-16--------|-16--------|-18----|
|-----------|-----------|-----------|-------|
|-----------|-----------|-----------|-------|
|-----------|-----------|-----------|-------|


   E. S S S  E. S S S  E S S    E. S S S  E. S S S  E S S
|----------------------------|----------------------------|
|----------------------------|----------------------------|
|----------------------------|----------------------------|
|--7---------7---------7-----|--7---------7---------7-----|
|--7---------7---------7-----|--7---------7---------7-----|
|--5--5-5-5--5--5-5-5--5-5-5-|--5--5-5-5--5--5-5-5--5-5-5-|
|
|  Q.        Q.        Q        Q.        Q.        Q
|-21--------21--------21-----|-21--------23--------24-----|
|-17--------17--------17-----|-17--------19--------21-----|
|-18--------18--------18-----|-18--------20--------21-----|
|----------------------------|----------------------------|
|----------------------------|----------------------------|
|----------------------------|----------------------------|


                            To Coda
   E. S S S E. S S S E S S   Q  H.
|--------------------------|-----------||
|--------------------------|-----------||
|--------------------------|-----------||
|--9--------9--------9-----|-9---------||
|--9--------9--------9-----|-9---------||
|--7--7-7-7-7--7-7-7-7-7-7-|-7---------||
|
|  W                         W
|-23-----------------------|-----------||
|-19-----------------------|-----------||
|-20-----------------------|-----------||
|--------------------------|-----------||
|--------------------------|-----------||
|--------------------------|-----------||


 Bridge
   Q  E E E E E E     E  E E E E E   E   E
|---------0---2---|---4----2---4-----5---4-|
|--2--4-----------|------------------------|
|-------1---1---1-|------1---1---1---------|
|-----------------|------------------------|
|-----------------|------------------------|
|-----------------|------------------------|
|
| Gtr III
|  Q  E E E E E E     E  E E E E E   E   E
|-----------------|------------------------|
|-----------------|------------------------|
|--6--------------|----------------------6-|
|--6--------------|--------6---6---------6-|
|--4--4-4-4-4-4-4-|---4--4-4-4-4-4---4---4-|
|-----------------|------------------------|
|
| Gtr IV
|  W                 +H.            +E   E
|-16--------------|-(16)-----------(16)-16-|
|-14--------------|-(14)-----------(14)-14-|
|--1--------------|--(1)------------(1)--1-|
|-----------------|------------------------|
|-----------------|------------------------|
|-----------------|------------------------|


   +E  E E E E E E E     E  E E E E E   E    E
|--(4)-4---------0---|---2----0---4-----5--[16]--|
|--------2---4-------|---------------------------|
|----------1---1---1-|------1---1---1------------|
|--------------------|---------------------------|
|--------------------|---------------------------|
|--------------------|---------------------------|
|
|  +E  E E E E E E E     E  E E E E E   E    E
|--------------------|---------------------------|
|--------------------|---------------------------|
|--(6)---------------|-----------------------6---|
|--(6)-6-------------|--------6---6----------6---|
|--(4)-4-4-4-4-4-4-4-|---4--4-4-4-4-4---4----4---|
|--------------------|---------------------------|
|
|  +W                   +H.            +E    E
|-(16)---------------|-(16)-----------(16)--16---|
|-(14)---------------|-(14)-----------(14)--14---|
|--(1)---------------|--(1)------------(1)---1---|
|--------------------|---------------------------|
|--------------------|---------------------------|
|--------------------|---------------------------|


   +Q   E E E E E E     E  E E E E E   E   E
|-(16)----------0---|---2----0---4-----5---7-|
|-------2---4-------|------------------------|
|---------1---1---1-|------1---1---1---------|
|-------------------|------------------------|
|-------------------|------------------------|
|-------------------|------------------------|
|
|  +Q   E E E E E E     E  E E E E E   E   E
|-------------------|------------------------|
|-------------------|------------------------|
|--(6)--------------|------------------------|
|--(6)--------------|--------6---6---------2-|
|--(4)--4-4-4-4-4-4-|---4--4-4-4-4-4---4---2-|
|-------------------|----------------------0-|
|
|  +W                  +H.            +E   E
|-(16)--------------|-(16)-----------(16)-12-|
|-(14)--------------|-(14)-----------(14)-12-|
|--(1)--------------|--(1)------------(1)--4-|
|-------------------|------------------------|
|-------------------|------------------------|
|-------------------|------------------------|


   +E  E E E E E   E   E   +E  E E E E E   E   E
|--(7)-7-5-5-4-4---0---2-|-(2)-0-2-4-2-0----------|
|------------------------|-----------------4---2--|
|------------------------|------------------------|
|------------------------|------------------------|
|------------------------|------------------------|
|------------------------|------------------------|
|
|  +H.            +E   E   +H.            +E   E
|------------------------|------------------------|
|------------------------|------------------------|
|----------------------4-|-(4)------------(4)--6--|
|--(2)------------(2)--4-|-(4)------------(4)--6--|
|--(2)------------(2)--2-|-(2)------------(2)--4--|
|--(0)------------(0)----|------------------------|
|
|  +H.            +E   E    H.            +E   E
|-(12)-----------(12)-12-|-16------------(16)-16--|
|-(12)-----------(12)-12-|-14------------(14)-14--|
|--(4)------------(4)--4-|--1-------------(1)--1--|
|------------------------|------------------------|
|------------------------|------------------------|
|------------------------|------------------------|


  +E  E E E E E E E     E  E E E  E  S S   E   E
|-----------0---2---|---4----2---[4]-5-4---2---4-|
|-(2)-2-4-----------|----------------------------|
|---------1---1---1-|------1---1-----------------|
|-------------------|----------------------------|
|-------------------|----------------------------|
|-------------------|----------------------------|
|
| +E  E E E E E E E     E  E E E  E  E     E   E
|-------------------|----------------------------|
|-------------------|----------------------------|
|-(6)---------------|--------------------------6-|
|-(6)-6-------------|--------6----6------------6-|
|-(4)-4-4-4-4-4-4-4-|---4--4-4-4--4--4-----4---4-|
|-------------------|----------------------------|
|
|  W                   +H.                +E   E
|-16----------------|-(16)---------------(16)-16-|
|-14----------------|-(14)---------------(14)-14-|
|--1----------------|--(1)----------------(1)--1-|
|-------------------|----------------------------|
|-------------------|----------------------------|
|-------------------|----------------------------|


   +E  E E E E E E E     E  E E E E E   E    E
|--(4)-4---------0---|---2----0---5-2---0--[16]-|
|--------2---4-------|----------------------[9]-|
|----------1---1---1-|------1---1---------------|
|--------------------|--------------------------|
|--------------------|--------------------------|
|--------------------|--------------------------|
|
|  +E  E E E E E E E     E  E E E E E   E    E
|--------------------|--------------------------|
|--------------------|--------------------------|
|--(6)---------------|-----------------------6--|
|--(6)-6-------------|--------6---6----------6--|
|--(4)-4-4-4-4-4-4-4-|---4--4-4-4-4-4---4----4--|
|--------------------|--------------------------|
|
|  +W                   +H.            +E    E
|-(16)---------------|-(16)-----------(16)--16--|
|-(14)---------------|-(14)-----------(14)--14--|
|--(1)---------------|--(1)------------(1)---1--|
|--------------------|--------------------------|
|--------------------|--------------------------|
|--------------------|--------------------------|


   +Q    E E E E E E     E  E E E E E   E   E
|-(16)-----------0---|---2----0---4-----5---7-|
|--(9)---2---4-------|------------------------|
|----------1---1---1-|------1---1---1---------|
|--------------------|------------------------|
|--------------------|------------------------|
|--------------------|------------------------|
|
|  +E  E E E E E E E     E  E E E E E   E   E
|--------------------|------------------------|
|--------------------|------------------------|
|--(6)---------------|------------------------|
|--(6)-6-------------|--------6---6---------2-|
|--(4)-4-4-4-4-4-4-4-|---4--4-4-4-4-4---4---2-|
|--------------------|----------------------0-|
|
|  +W                   +H.            +E   E
|-(16)---------------|-(16)-----------(16)-12-|
|-(14)---------------|-(14)-----------(14)-12-|
|--(1)---------------|--(1)------------(1)--4-|
|--------------------|------------------------|
|--------------------|------------------------|
|--------------------|------------------------|


   +E  E E E E E   E   E    +E  E E E E E   E   E
|--(7)-7-5-5-4-4---0---2-|--(2)-0-2-4-2-0-------0--|
|------------------------|------------------4------|
|------------------------|-------------------------|
|------------------------|-------------------------|
|------------------------|-------------------------|
|------------------------|-------------------------|
|
|  +H.            +E   E    +H.            +E   E
|------------------------|-------------------------|
|------------------------|-------------------------|
|----------------------4-|--(4)------------(4)-----|
|--(2)------------(2)--4-|--(4)------------(4)--2--|
|--(2)------------(2)--2-|--(2)------------(2)--2--|
|--(0)------------(0)----|----------------------0--|
|
|  +H.            +E   E    +H.            +E   E
|-(12)-----------(12)-14-|-(14)-----------(14)-12--|
|-(12)-----------(12)-12-|-(12)-----------(12)-10--|
|--(4)------------(4)--4-|--(4)------------(4)--2--|
|------------------------|-------------------------|
|------------------------|-------------------------|
|------------------------|-------------------------|


               1.
                 ~~~~~~~~~~~~~~~~~~~~~~~~~~~~~~~~~~~~~~~~
                 |---3----|  |--3---|  |--3--|  |--3--|
   +W            E  E     E  E   E  E  E  E  E  E  E  E
|--(0)--------|-15-16----17-17--18-19-20-21-22-22-23-24-|
|-------------|-15-15----16-16--17-17-18-18-19-19-20-20-|
|-------------|-----------------------------------------|
|-------------|-----------------------------------------|
|-------------|-----------------------------------------|
|-------------|-----------------------------------------|
|
|  +W            Q           H.
|-------------|-----------------------------------------|
|-------------|-----------------------------------------|
|-------------|--2--------------------------------------|
|--(2)--------|--2--------------------------------------|
|--(2)--------|--0--------------------------------------|
|--(0)--------|-----------------------------------------|
|
|  +W            E    Q.               H
|-(12)--------|--5--------------------------------------|
|-(10)--------|-----------------------------------------|
|--(2)--------|--2--------------------------------------|
|-------------|-----------------------------------------|
|-------------|-----------------------------------------|
|-------------|-----------------------------------------|


 ~~~~~~~~~~~~~~~~~~~~~~~~~~~~~~~~~~~~~~~~~
   |---3----|  |--3---|  |--3--|  |--3--|
   E  E     E  E   E  E  E  E  E  E  E  E
|------------------------------------------||
|-13-14----15-16--17-18-19-20-21-22-23-24-o||
|-13-14----15-16--17-18-19-20-21-22-23-24--||
|------------------------------------------||
|-----------------------------------------o||
|------------------------------------------||
|
|  Q           H.
|------------------------------------------||
|-----------------------------------------o||
|------------------------------------------||
|--6---------------------------------------||
|--6--------------------------------------o||
|--4---------------------------------------||
|
|  E    Q.               H
|--4---------------------------------------||
|-----------------------------------------o||
|--1---------------------------------------||
|------------------------------------------||
|-----------------------------------------o||
|------------------------------------------||


  2.
  E.     S H.         E.     S H.
|-------------------|-------------------||
|-------------------|-------------------||
|-2-----------------|-------------------||
|-2-----------------|-6-----------------||
|-0-----------------|-6-----------------||
|-------------------|-4-----------------||
|
| W                   W
|-------------------|-------------------||
|-------------------|-------------------||
|-------------------|-------------------||
|-------------------|-------------------||
|-2b4r==============|=2b6r==============||
|-0b2r==============|=0b4r==============||
|
| E   Q.       H      E   Q.       H
|-5-----------------|-4-----------------||
|-------------------|-------------------||
|-2-----------------|-1-----------------||
|-------------------|-------------------||
|-------------------|-------------------||
|-------------------|-------------------||


 Pre-Solo Bridge
  Gtr I
  E E E E E   E E   E    E  E E E E   E E   E
|---------------------|-----------------------|
|---------------------|-----------------------|
|---------------------|-----------------------|
|-2-----2-------2-----|--4------4-------4-----|
|---2-----2-----------|-----2-----2-----------|
|-----0-------0-----0-|-------0-------0-----0-|
|
| E E E E S S E S S E    E  E E E S S E S S E
|---------------------|-----------------------|
|---------------------|-----------------------|
|---------------------|-----------------------|
|---------------------|-----------------------|
|-2-2-2-2-2-2-2-2-2-2-|--2--2-2-2-2-2-2-2-2-2-|
|-0-0-0-0-0-0-0-0-0-0-|--0--0-0-0-0-0-0-0-0-0-|
|
| W                      W
|---------------------|-----------------------|
|---------------------|-----------------------|
|-9-------------------|-11--------------------|
|-5-------------------|--7--------------------|
|---------------------|-----------------------|
|-0-------------------|-(0)-------------------|


   E   E E E E   E E   E    E    E E E E   E E   E
|------------------------|---------------------------|
|------------------------|---------------------------|
|--0-------0-------0-----|---------------------------|
|------------------------|--4--------0-------4-------|
|------2-----2-----------|-------2-----2-------------|
|--------0-------0-----0-|---------0-------0-----0---|
|
|  S S E E E S S E S S E    S  S E E E S S E S S E
|------------------------|---------------------------|
|------------------------|---------------------------|
|------------------------|---------------------------|
|------------------------|---------------------------|
|--2-2-2-2-2-2-2-2-2-2-2-|--2--2-2-2-2-2-2-2-2-2-2---|
|--0-0-0-0-0-0-0-0-0-0-0-|--0--0-0-0-0-0-0-0-0-0-0---|
|
|  W                        W
|------------------------|---------------------------|
|------------------------|---------------------------|
|-12---------------------|-11------------------------|
|--9---------------------|--7------------------------|
|------------------------|---------------------------|
|--0---------------------|-(0)-----------------------|


  E   E E E E   E E   E    E    E E E E   E E   E
|-----------------------|-------------------------|
|-----------------------|-------------------------|
|-----------------------|-------------------------|
|-2-------2-------2-----|--4--------4-------4-----|
|-----2-----2-----------|-------2-----2-----------|
|-------0-------0-----0-|---------0-------0-----0-|
|
| S S E E E S S E S S E    S  S E E E S S E S S E
|-----------------------|-------------------------|
|-----------------------|-------------------------|
|-----------------------|-------------------------|
|-----------------------|-------------------------|
|-2-2-2-2-2-2-2-2-2-2-2-|--2--2-2-2-2-2-2-2-2-2-2-|
|-0-0-0-0-0-0-0-0-0-0-0-|--0--0-0-0-0-0-0-0-0-0-0-|
|
| W                        W
|-----------------------|-------------------------|
|-----------------------|-------------------------|
|-9---------------------|-11----------------------|
|-5---------------------|--7----------------------|
|-----------------------|-------------------------|
|-0---------------------|-(0)---------------------|


   E   E E E E   E E   E    E    E E E E   E E   E
|------------------------|-------------------------|
|------------------------|-------------------------|
|--0-------0-------0-----|-------------------------|
|------------------------|--4--------0-------4-----|
|------2-----2-----------|-------2-----2-----------|
|--------0-------0-----0-|---------0-------0-----0-|
|
|  S S E E E S S E S S E    S  S E E E S S E S S E
|------------------------|-------------------------|
|------------------------|-------------------------|
|------------------------|-------------------------|
|------------------------|-------------------------|
|--2-2-2-2-2-2-2-2-2-2-2-|--2--2-2-2-2-2-2-2-2-2-2-|
|--0-0-0-0-0-0-0-0-0-0-0-|--0--0-0-0-0-0-0-0-0-0-0-|
|
|  W                        W
|------------------------|-------------------------|
|------------------------|-------------------------|
|-12---------------------|-11----------------------|
|--9---------------------|--7----------------------|
|------------------------|-------------------------|
|--0---------------------|-(0)---------------------|


   E E  E  E    E  E  E    E    E   E  E  E    E  E  E    E
|----------------------------|------------------------------|
|--0-------0----------0------|--1---------1----------1------|
|----------------------------|------------------------------|
|----2----------2------------|------2----------2------------|
|-------2----------2-------2-|---------2----------2-------2-|
|----------------------------|------------------------------|
|
|  E E  E  S S  E  E  S  S E    S S E  E  S S  E  E  S  S E
|----------------------------|------------------------------|
|----------------------------|------------------------------|
|----------------------------|------------------------------|
|----------------------------|------------------------------|
|--2-2--2--2-2--2--2--2--2-2-|--2-2-2--2--2-2--2--2--2--2-2-|
|--0-0--0--0-0--0--0--0--0-0-|--0-0-0--0--0-0--0--0--0--0-0-|
|
|  Q    Q      +Q     Q         Q      Q      +Q     Q
|-19---17------------19------|-20-----17------------14------|
|-20---19------------20------|-22-----19------------15------|
|--9----9-------------9------|--9------9-------------9------|
|----------------------------|------------------------------|
|----------------------------|------------------------------|
|--0---(0)-----(0)---(0)-----|--0-----(0)-----(0)---(0)-----|


   E   E  E  E    E  E  E    E    E   E  E  E    E  E  E    E
|------------------------------|-------------------------------|
|--0---------0----------0------|-------------------------------|
|------------------------------|--2---------0----------2-------|
|------2----------2------------|------2----------2-------------|
|---------2----------2-------2-|---------2----------2-------2--|
|------------------------------|-------------------------------|
|
|  S S E  E  S S  E  E  S  S E    S S E  E  S S  E  E  S  S E
|------------------------------|-------------------------------|
|------------------------------|-------------------------------|
|------------------------------|-------------------------------|
|------------------------------|-------------------------------|
|--2-2-2--2--2-2--2--2--2--2-2-|--2-2-2--2--2-2--2--2--2--2-2--|
|--0-0-0--0--0-0--0--0--0--0-0-|--0-0-0--0--0-0--0--0--0--0-0--|
|
|  Q      Q      +Q     Q         Q      Q      +Q     Q
|-15-----17------------19------|-19-----20------------17-------|
|-17-----19------------20------|-20-----22------------19-------|
|--9------9-------------9------|--9------9-------------9-------|
|------------------------------|-------------------------------|
|------------------------------|-------------------------------|
|--0-----(0)-----(0)---(0)-----|--0-----(0)-----(0)---(0)------|
            
Submit corrections


        My Spirit Will Go On lessons Hard to play? Try these video lessons and learn fast My Spirit Will Go On lessons
        
↑ Back to top | Tablatures and chords for acoustic guitar and electric guitar, ukulele, drums are parodies/interpretations of the original songs. You may use it for private study, scholarship, research or language learning purposes only