» » »

Dragonforce - Cry Thunder Tabs

Artists:  A B C D E F G H I J K L M N O P Q R S T U V W X Y Z # 

Cry Thunder Tabs

(ver. 2) Click to play this song!
Dragonforce
 Rating:
4/5 (22 votes)

 Cry Thunder lessons Tabs too difficult? Try these video lessons and learn fast
 
                Intro

Guitar 1
e|---------------------------|----------------------|-------------------------|----------|
B|---------------------------|----------------------|-------------------------|----------|
G|--11---9--11--12----12--12-|-12--11-9-11----9--11-|-12--14--12--11--11\9--7-|-7/9------|
D|---------------------------|----------------------|-------------------------|----------|
A|---------------------------|----------------------|-------------------------|----------|
E|---------------------------|----------------------|-------------------------|----------|
 |Guitar 2
e|---------------------------|----------------12-14-|-15--17--15--14--14/12-10-|-10/12---|
B|---------------------------|----------------------|--------------------------|---------|
G|---------------------------|----------------------|--------------------------|---------|
D|---------------------------|----------------------|--------------------------|---------|
A|---------------------------|----------------------|--------------------------|---------|
E|---------------------------|----------------------|--------------------------|---------|
 |Guitar 3
e|---------------------------|----------------------|--------------------------|----------|
B|---------------------------|----------------------|--------------------------|----------|
G|--4------------------------|---7--------2---------|----------------7---7---7-|-2--------|
D|--4------------5-----------|---7--------2---------|---5----5---5---7---7---7-|-2--------|
A|--2-----2--2---5-----------|---5--5--5--0----0--0-|---5----5---5---5---5---5-|-0--------|
E|---------------3----3---3--|----------------------|---3----3---3-------------|----------|
          x  x        x   x         x  x       x  x                             
Guitar 1
e|---------------------------|----------------------|---------------------------|--------------|-----------|
B|---------------------------|----------------------|---------------------------|--------------|-----------|
G|--11---9--11--12----12--12-|-12--11-9-11----9--11-|-12--14--12--11h12p11--9-7-|--/14WV-------|------16-18|
D|---------------------------|----------------------|---------------------------|--------------|-----------|
A|---------------------------|----------------------|---------------------------|--------------|-----------|
E|---------------------------|----------------------|---------------------------|--------------|-----------|
|Guitar 2
e|--14---12--14--15---15--15-|-15-14-12-14----12-14-|-15-17-15--14h15p14-12-10-|-17WV----------|
B|---------------------------|----------------------|--------------------------|---------------|
G|---------------------------|----------------------|--------------------------|---------------|
D|---------------------------|----------------------|--------------------------|---------------|
A|---------------------------|----------------------|--------------------------|---------------|
E|---------------------------|----------------------|--------------------------|---------------|
|Guitar 3                                                                         |--------3--------|
e|---------------------------|----------------------|--------------------------|-------------------- |----|
B|---------------------------|----------------------|--------------------------|---------------------|----|
G|---------------------------|----------------------|--------------------------|4--------------------|4---|
D|---------------------------|----------------------|--------------------------|4--------------------|4---|
A|---------------------------|----------------------|--------------------------|2--2-2-2-2-2-2-2-2-2-|2---|
E|---------------------------|----------------------|--------------------------|---------------------|----|
                                                                                   x x x x x x x x x 
Main riff  
    
Guitar 1
      |--3--|                                |--3--|
e||------------------------15-------------|--------------------------------------|
B||-15------------15-17-19----19-17-15----|15------------------14-15-17-15-14----|
G||-----161616-16----------------------18-|---161616-16--14-16----------------14-|
D||---------------------------------------|--------------------------------------|
A||---------------------------------------|--------------------------------------|
E||---------------------------------------|--------------------------------------|
|Guitar 2
e||---------------------------------------|--------------------------------------|
B||---------------------------------------|--------------------------------------|
G||--4---------4---------4---------4------|-4---------4------------2---------2---|
D||--4---------4---------4---------4------|-4---------4------------2---------2---|
A||--2--2-2-2--2---------2--2-2-2--2------|-2--2-2-2--2------------0--0-0-0--0---|
E||---------------------------------------|--------------------------------------|
       x x x               x x x              x x x                  x x x      

Guitar 1
     |--3--|                                |--3--|
e|------------------------15-------------|----------------15--------------------------||
B|-15------------15-17-19----19-17-15----|15-151515-17-19----19-17--------------------||
G|-----161616-16----------------------18-|-------------------------16-18-19-18-16-14--||
D|---------------------------------------|--------------------------------------------||
A|---------------------------------------|--------------------------------------------||
E|---------------------------------------|--------------------------------------------||
|Guitar 2                                                                                  x2
e|---------------------------------------|--------------------------------------------||
B|---------------------------------------|--------------------------------------------||
G|--4---------4---------4---------4------|---------------------2---------2---------4--||
D|--4---------4---------4---------4------|-5---------5---------2---------2---------4--||
A|--2--2-2-2--2---------2--2-2-2--2------|-5---------5---------0--0-0-0--0---------2--||
E|---------------------------------------|-3--3-3-3--3--------------------------------||
       x x x               x x x              x x x               x x x

Verse

Guitar 1
e|-----------------------------------------------------------|
B|-----------------------------------------------------------|
G|--4------4------4------4------4------------7--7--7--2------|
D|--4------4------4------4------4-----5------7--7--7--2------|x2
A|--2--2-2-2--2-2-2--2-2-2--2-2-2-2-2-5------5--5--5--0------|
E|------------------------------------3--3-3-----------------|
       x x    x x    x x    x x   x x    x x  

Repeat main riff and verse
chorus( haven't worked the pre chorus yet)

Guitar 1
e|------------------------------------------------------------------|
B|------------------------------------------------------------------|
G|-x--4-------4---7--7------7--------4-4---------------4-4-4--2--2--|
D|-x--4-------4---7--7------7--------4-4-----5-5-------4-4-4--2--2--|
A|-x--2---2-2-2---5--5--5-5-5--5-5-5-2-2-2-2-5-5-------2-2-2--0--0--|
E|-------------------------------------------3-3-3-3-3--------------|
          x x           x x    x x x     x x     x x x                      second time only
e|---------------------------------------------------------------------|------------------------|
B|---------------------------------------------------------------------|------------------------|
G|-x--4-------4---7--7-------7---------------------2---------2-2-2-4---|---------2---2---2-2-2-4|
D|-x--4-------4---7--7-------7----------5----------2---------2-2-2-4---|--5------2---2---2-2-2-4|
A|-x--2---2-2-2---5--5--5-5--5--5-5-5---5----------0--0--0-0-0-0-0-2---|--5------0---0---0-0-0-2|
E|--------------------------------------3--3--3-3----------------------|--3---------------------|
          x x           x x     x x x      x  x x     x  x x                             x x x 


Interlude

Guitar 1
e|--------------------------------------------------------------------------------|
B|--------------------------------------------------------------------------------|
G|--4-4-4-4-4-4-4---4---4-4-4-4-4-4-4----2---------4---------4-------------4---2--|
D|--4-4-4-4-4-4-4---4---4-4-4-4-4-4-4----2---------4---------4-------------4---2--|
A|--2-2-2-2-2-2-2---2---2-2-2-2-2-2-2----0---2-2-2-2---2-2-2-2---2-2-2-2-2-2---0--|
E|--------------------------------------------------------------------------------|
                                             x x x     x x x     x x x x x

Guitar solo (I have only got the first few bars at the moment but I will update this as I work out the rest
of it.

e|--------------|--------------------|--------------------------------------------------------------|
B|--16brb--14---|--------------------|------------------------------------------------15--15-17v----|
G|------------15|-14-15-14----<15>v--|--------------------------------------------------13----------|
D|--------------|----------15--------|-15-14----------------------12---13----12----12---------------|
A|--------------|--------------------|-------15-14-15-14-12-14-15----15---15----15------------------|
E|--------------|--------------------|-----------------------------------------|

e|---------------------------------------------------------------------------|
B|---------------------------------------------------------------------------|
G|---------------------------------------------------------------------------|
D|---------------------------------------------------------------------------|
A|---------------------------------------------------------------------------|
E|---------------------------------------------------------------------------|            
Submit corrections


        Cry Thunder lessons Hard to play? Try these video lessons and learn fast Cry Thunder lessons
        
↑ Back to top | Tablatures and chords for acoustic guitar and electric guitar, ukulele, drums are parodies/interpretations of the original songs. You may use it for private study, scholarship, research or language learning purposes only