» » »

Doors - Touch Me Tabs

Artists:  A B C D E F G H I J K L M N O P Q R S T U V W X Y Z # 

Touch Me Tabs

(ver. 3) Click to play this song!
Doors
 Rating:
4/5 (4 votes)

 Touch Me lessons Tabs too difficult? Try these video lessons and learn fast
 
                        Gb                   Fm                   Ab                   Db
      2 4 4 3 2 2          1 3 3 1 1 1          4 6 6 5 4 4         x x 11 10 9 9

          Db6                  Db5                  Am                 Amadd9
    x x 11 10 11 9        9 11 11 x x x         x x 7 5 5 5          x x 7 5 5 7

         Gb/Db                 A5                   G5
    x x 11 11 11 x         x x 7 x 5 5          x x 5 x 3 3



Gtr I (E A D G B E) - 'Robby Krieger - Electric Guitar'

   Intro
    Moderately fast Q=109
    Am
   4/4
    Gtr I
    E E E S S S S S S S S S S   E E E S S S S S S S S S S  3x
||--5-5-5-5-5---5---5-5-5-5-x-|-5-5-5-5-5---5---5-5-5-5-x--||
||o-5-5-5-5-5---5---5-5-5-5-x-|-5-5-5-5-5---5---5-5-5-5-x-o||
||--2-2-2-0-2---2---0-2-2-4-x-|-2-2-2-0-2---2---0-2-2-4-x--||
||----------------------------|----------------------------||
||o---------------------------|---------------------------o||
||----------------------------|----------------------------||


                                            1st & 2nd Verses
                                          $
  Amadd9                                     G
  E E E S S S S S S S S S S   E E Q  H       Q.   E +E  S S S S S S
|-7-7-7-7-7---7---7-7-7-7---|-7-----------||-3----3-(3)-x-x-3-3-x-x--|
|-5-5-5-5-5---5---5-5-5-5---|-5-----------||-3----3-(3)-x-x-3-3-x-x--|
|-5-5-5-5-5---5---5-5-5-5---|-5-----------||-4----4-(4)-x-x-4-4-x-x--|
|-7-7-7-7-7---7---7-7-7-7---|-7-----------||-5----5-(5)-----5-5------|
|---------------------------|-------------||-5----5-(5)--------------|
|---------------------------|-------------||-3----3-(3)--------------|


  Bm                        C
  E. S S S E +S  S S S Q    E S S S S S S S S S S S S E
|-2--2-2-2-2-(2)-x-2-2-2--|---3-----3-----3-----3-----3-|
|-3--3-3-3-3-(3)-x-3-3-3--|-----3h5---3h5---3h5---3h5---|
|-2--2-2-2-2-(2)-x-2-2-2--|-----------------------------|
|-4--4-4-4-4-(4)-------4--|-----------------------------|
|-2--2-2-2-2-(2)-------2--|-----------------------------|
|-------------------------|-----------------------------|


  Eb                              Bb
  S S S S S S S S S S S S S S E   E E E S S S S S S S S E
|-----6-----6-----6-----6-----6-|-6-6-6-6-6---6---6-6-6-6-|
|-6h8---6h8---6h8---6h8---6h8---|-6-6-6-6-6---6---6-6-6-6-|
|-------------------------------|-7-7-7-7-7---7---7-7-7-7-|
|-------------------------------|-8-8-8-8-8---8---8-8-8-8-|
|-------------------------------|-------------------------|
|-------------------------------|-------------------------|


  Dm7                     Eb
  E E E S S S S S S E E   E S S S S S S S S S S S S E
|-----------------------|-------6-----6-----6-------6-|
|-6-6-6-6-6---6---6-6-6-|---6h8---6h8---6h8---8p6h8---|
|-5-5-5-5-5---5---5-5-5-|-----------------------------|
|-7-7-7-7-7---7---7-7-7-|-----------------------------|
|-5-5-5-5-5---5---5-5-5-|-----------------------------|
|-----------------------|-----------------------------|


  Gb                                   Db
  S  S S S  S S S  S S S  S S S  S E    E  E  E  S  S S  S S  S  E S S
|------9------9------9------9------9-|--9--9--9--9--9----9----9--9-x-x-|
|-9h11---9h11---9h11---9h11---9h11---|--9--9--9--9--9----9----9--9-x-x-|
|------------------------------------|-10-10-10-10-10---10---10-10-x-x-|
|------------------------------------|-11-11-11-11-11---11---11-11-----|
|------------------------------------|-11-11-11-11-11---11---11-11-----|
|------------------------------------|--9--9--9--9--9----9----9--9-----|


                                   Chorus
                                    Gb         Fm         Gb   Ab
                                    Gtr I
   W                                W          W          H    H
                                    |          |          |    |
                                    /          /          /    /

   E  E  E  S  S S  S S  S  E  E    W          W          W
|--9--9--9--9--9----9----9-------||----------|----------|-----------|
|--9--9--9--9--9----9----9-------||----------|----------|-----------|
|-10-10-10-10-10---10---10-------||----------|----------|-----------|
|-11-11-11-11-11---11---11--9\---||----------|----------|-----------|
|-11-11-11-11-11---11---11-11\---||----------|----------|-----------|
|--9--9--9--9--9----9----9--9\---||----------|----------|-----------|


  Db  DbDb                Gb         Fm         Gb   Ab
  E E E S S S S S S E E   W          W          H    H
  | | | | |   |   | |     |          |          |    |
  / / / / /   /   / /     /          /          /    /

  W                       W          W          W
|-----------------------|----------|----------|-----------|
|-----------------------|----------|----------|-----------|
|-----------------------|----------|----------|-----------|
|-----------------------|----------|----------|-----------|
|-----------------------|----------|----------|-----------|
|-----------------------|----------|----------|-----------|


                                                         To Coda
  Gb            Db                            DbDb          Db5
  Q  Q  Q  Q    E E E S S S S S S E S S   E E E S S S S S S E E
  |  |  |  |    | | | | |   |   | | | |   | | | | |   |   | |
  /  /  /  /    / / / / /   /   / / x x   / / / / /   /   / /

  W             W                         W
|-------------|-------------------------|-------------------------||
|-------------|-------------------------|-------------------------||
|-------------|-------------------------|-------------------------||
|-------------|-------------------------|-------------------------||
|-------------|-------------------------|-------------------------||
|-------------|-------------------------|-------------------------||


             Am
  W          E E E S S S S E Q    E E E S S H
             | | | | |   |        | | | | |
             / / / x /   /        / / / x /

  W          W                    W
|----------|--------------------|----------------|
|----------|--------------------|----------------|
|----------|--------------------|----------------|
|----------|--------------------|----------------|
|----------|--------------------|----------------|
|----------|--------------------|----------------|


  Am                          Amadd9
  E E E S S S S S S S S S S   E E E S S S S S S S S S S
  | | | | |   |   | | | | |   | | | | |   |   | | | | |
  / / / / /   /   / / / x x   / / / / /   /   / / / x x

  W                           W
|---------------------------|----------------------------|
|---------------------------|----------------------------|
|---------------------------|----------------------------|
|---------------------------|----------------------------|
|---------------------------|----------------------------|
|---------------------------|----------------------------|


                                                   D.S. al Coda
                                                  Am  Amadd9
  E E E S S S S S S S S S S   E E E S S S S S S E E   E E Q  H
  | | | | |   |   | | | | |   | | | | |   |   | | |   |
  / / / / /   /   / / / x x   / / / / /   /   / / /   /

  W                           W                       W
|---------------------------|-----------------------|--------------||
|---------------------------|-----------------------|--------------||
|---------------------------|-----------------------|--------------||
|---------------------------|-----------------------|--------------||
|---------------------------|-----------------------|--------------||
|---------------------------|-----------------------|--------------||


 Chorus
  &
  Gb         Fm         GbAb       Db
  W          W          W          W
|----------|----------|----------|------|
|----------|----------|----------|------|
|----------|----------|----------|------|
|----------|----------|----------|------|
|----------|----------|----------|------|
|----------|----------|----------|------|


  Gb         Fm          Gb    Ab      Gb
  Gtr I
  W          H    H      Q  Q  Q  Q    Q  Q  Q  Q
  |          |    |      |  |  |  |    |  |  |  |
  /          /    /      /  /  /  /    /  /  /  /

  W          W           W             W
|----------|-----------|-------------|-------------|
|----------|-----------|-------------|-------------|
|----------|-----------|-------------|-------------|
|----------|-----------|-------------|-------------|
|----------|-----------|-------------|-------------|
|----------|-----------|-------------|-------------|


  Db  Gb/Db        Gb/DbDb  Gb/Db        Gb/Db
  E E E. S S S S S Q    E E E. S S S S S Q    W          W
  | | |  |   |   | |    | | |  |   |   | |
  / / /  /   /   / /    / / /  /   /   / /

  W                     W                     W          W
|---------------------|---------------------|----------|------|
|---------------------|---------------------|----------|------|
|---------------------|---------------------|----------|------|
|---------------------|---------------------|----------|------|
|---------------------|---------------------|----------|------|
|---------------------|---------------------|----------|------|


   Sax Solo
    Am
    Gtr I
    E E E S S S S S S S S S S   E E E S S S S S S S S S S  9x
||--5-5-5-5-5---5---5-5-5-5-x-|-5-5-5-5-5---5---5-5-5-5-x--||
||o-5-5-5-5-5---5---5-5-5-5-x-|-5-5-5-5-5---5---5-5-5-5-x-o||
||--2-2-2-0-2---2---0-2-2-4-x-|-2-2-2-0-2---2---0-2-2-4-x--||
||----------------------------|----------------------------||
||o---------------------------|---------------------------o||
||----------------------------|----------------------------||


                              A5  G5A5
  E E E S S S S S S S S S S   E E E e H
|-5-5-5-5-5---5---5-5-5-5-x-|-5-5-3-5------*|
|-5-5-5-5-5---5---5-5-5-5-x-|-5-5-3-5------*|
|-2-2-2-0-2---2---0-2-2-4-x-|--------------*|
|---------------------------|-7-7-5-7------*|
|---------------------------|--------------*|
|---------------------------|--------------*|            
Submit corrections


        Touch Me lessons Hard to play? Try these video lessons and learn fast Touch Me lessons
        
↑ Back to top | Tablatures and chords for acoustic guitar and electric guitar, ukulele, drums are parodies/interpretations of the original songs. You may use it for private study, scholarship, research or language learning purposes only