» » »

Doors - Spanish Caravan Bass

Artists:  A B C D E F G H I J K L M N O P Q R S T U V W X Y Z # 

Spanish Caravan Bass

(ver. 1) Click to play this song!
Doors
 Rating:
4/5 (4 votes)

 Spanish Caravan lessons Tabs too difficult? Try these video lessons and learn fast
 
                ------------------------------------------------------------------------------
			     Spanish Caravan - Doors
-------------------------------------------------------------------------------


Tuning:standard

  intro
G|45240--452402-----45240--45240--452402------|
D|-----2-------4542------2------2-------45420-|
A|--------------------------------------------|
E|--------------------------------------------|

G|--4--4--4--4--3--5--5--5--5--4--4--4--4---5--5--4--4--5--5--7--7--5--5----4|
D|-4--4--4--4--3--5--5--5--5--4--4--4--4---5--5--4--4--5--5--7--7--5--5---4--|
A|2--2--2--2--3--3--3--3--3--2--2--2--2---3--3--2--2--3--3--5--5--3--3--2----|
E|---------------------------------------------------------------------------|

  verse
G|------2-4-5-4-2----44--44-------2-4-5-4-2----44--44-|
D|2-4-5-----------5-2---2---2-4-5-----------5-2---2---|
A|----------------------------------------------------|
E|----------------------------------------------------|

G|2-4-5-4-0-2--------44--44-2-4-5-4-0-2---------|
D|------------4-5-4-2---2---------------4-5-4-2-|
A|----------------------------------------------|
E|----------------------------------------------|

  chorus
G|0-----------------------|
D|-2--2-4-5-4-2-0-2-4-2-0-|
A|------------------------|
E|------------------------|

G|--4--4--4--4--3--5--5--5--5--4--4--4--4---5--5--4--4--5--5--7--7--5--5--454|
D|-4--4--4--4--3--5--5--5--5--4--4--4--4---5--5--4--4--5--5--7--7--5--5--4---|
A|2--2--2--2--3--3--3--3--3--2--2--2--2---3--3--2--2--3--3--5--5--3--3--2----|
E|---------------------------------------------------------------------------|
            
Submit corrections


        Spanish Caravan lessons Hard to play? Try these video lessons and learn fast Spanish Caravan lessons
        
↑ Back to top | Tablatures and chords for acoustic guitar and electric guitar, ukulele, drums are parodies/interpretations of the original songs. You may use it for private study, scholarship, research or language learning purposes only