» » »

Doors - Soul Kitchen Tabs

Artists:  A B C D E F G H I J K L M N O P Q R S T U V W X Y Z # 

Soul Kitchen Tabs

(ver. 2) Click to play this song!
Doors
 Rating:
4/5 (4 votes)

 Soul Kitchen lessons Tabs too difficult? Try these video lessons and learn fast
 
                Sec01


TIME 0:00    |    0:01    |    0:02    |    0:03    |    0:04    |    0:05    |
e------------------------------------------------------------------------------|
B------------------------------------------------------------------------------|
G------------------------------------------------------------------------------|
D------------------------------------------------------------------------------|
A------------------------------------------------------------------------------|
E------------------------------------------------------------------------------|

Sec02


    0:06    |    0:07    |    0:08    |    0:09    |    0:10    |
------------------------------------------------------------------|
--------------------------------------------------------------8-\-|
-------------------------------------7--\-------------------------|
------------------------------------------------------------------|
------------------------------------------------------------------|
------------------------------------------------------------------|
Sec03


    0:11    |    0:12    |    0:13    |    0:14    |    0:15    |
-----------------------------------------------------------------|
-----------------------------------------------------8\/---------|
--------------7h9-7h9p7s5-5-----------7\-7h9p7s5-5-7-------------|
-------------------------7----------------------7----------------|
-----------------------------------------------------------------|
-----------------------------------------------------------------|
Sec04


    0:16    |    0:17    |    0:18    |    0:19    |    0:20    |
-----------------------------------------------------------------|
-----------------------------------------------------------------|
-7\-7h9p7-s5-5---------------------------------------------------|
--------------7--7-------7-----7----7----7-----------------------|
-----------------------------------------------------------------|
-----------------------------------------------------------------|

Sec05


    0:21    |    0:22    |    0:23    |    0:24    |    0:25    |
-----------8------------------------------8----------------------|
-----------8------------------------------8----------------------|
-----------8---------------7P5H7P5--------8---------7P5H7P5------|
-----------8---------X-5-X-5-------7-X----8---X-5-X-5-------7-X--|
-----0-X-------------X-0-X---------0-X--------X-0-X---------0-X--|
-----------------------------------------------------------------|

Sec06

                                         Well the clock says its
    0:26    |    0:27    |    0:28    |    0:29    |    0:30    |
8-----------------------8---------------------------8------------|
8-----------------------8---------------------------8------------|
8----------7P5H7P5------8-------------7P5H7P5-------8------------|
8----X-5-X-5-------7-X--8-------X-5-X-5-------7-X---8------X-5-X-|
-----X-0-X---------0-X----------X-0-X---------0-X----------X-0-X-|
-----------------------------------------------------------------|

Sec07

time to close                   now
    0:31    |    0:32    |    0:33    |    0:34    |    0:35    |
--------------8---------------------------8----------------------|
--------------8---------------------------8----------------------|
7P5H7P5-------8-----------7P5H7P5---------8----------7P5H7P5-----|
5-------7-X---8-----X-5-X-5-------7-X-----8----X-5-X-5-------7-X-|
--------0-X---------X-0-X---------0-X----------X-0-X---------0-X-|
-----------------------------------------------------------------|

Sec08

                        I guess  I'd  better   go
    0:36    |    0:37    |    0:38    |    0:39    |    0:40    |
---8---------------------------8--------------------------8------|
---8---------------------------8--------------------------8------|
---8----------7P5H7P5----------8-----------7P5H7P5--------8------|
---8----X-5-X-5-------7-X------8-----X-5-X-5-------7-X----8----X-|
--------X-0-X---------0-X------------X-0-X---------0-X---------X-|
-----------------------------------------------------------------|

Sec09

         now.

    0:41    |    0:42    |    0:43    |    0:44    |    0:45    |
--------------------8-------------------------8------------------|
--------------------8-------------------------8------------------|
----7P5H7P5---------8----------7P5H7P5--------8----------7P5H7P5-|
5-X-5--------7-X----8----X-5-X-5--------7-X---8----X-5-X-5-------|
0-X----------0-X---------X-0-X----------0-X--------X-0-X---------|
-----------------------------------------------------------------|

Sec10

I'd really   like  to  stay   here       all       night
    0:46    |    0:47    |    0:48    |    0:49    |    0:50    |
--------8---------------------------8-------------------------8--|
--------8---------------------------8-------------------------8--|
--------8-----------7P5H7P5---------8----------7P5H7P5--------8--|
-7-X----8----X-5-X-5---------7-X----8----X-5-X-5-------7-X----8--|
-0-X---------X-0-X-----------0-X---------X-0-X---------0-X-------|
-----------------------------------------------------------------|

Sec11

                                       The cars   crawl past  all
    0:51    |    0:52    |    0:53    |    0:54    |    0:55    |
----------------------8-------------------------8-----------------|
----------------------8-------------------------8--------10\------|
-------7P5H7P5--------8----------7P5H7P5--------8--------7-----7\-|
-X-5-X-5-------7-X----8----X-5-X-5-------7-X----8-----X--7--X--6\-|
-X-0-X---------0-X---------X-0-X---------0-X----------X-----------|
------------------------------------------------------------------|

Sec12

  stuffed   with  eyes         street lights share their hollow
    0:56    |    0:57    |    0:58    |    0:59    |    1:00    |
--------------------------------------8--------------------------|
-----7-S9-X---------------------------8-------10\---------7-S9-X-|
-----7-S9-X---------------------------8-------7-----7\----7-S9-X-|
--X---------7-5------5P7-5P7-5P7--X---8----X--7--X--6\-X---------|
--X-------------------------------X--------X-----X-----X---------|
-----------------------------------------------------------------|

Sec13

     glow.  Your brain seems bruised  with  numb  surprised.
    1:01    |    1:02    |    1:03    |    1:04    |    1:05    |
----------------------------8-------------------------------------|
----------------------------8-------10\----------7-S9-X-----------|
----------------------------8-------7-----7\-----7-S9-X-----------|
7-5------5H7-5H7-5H7----X---8----X--7--X--6\--X---------7-5-----5-|
------------------------X--------X-----X------X-------------------|
------------------------------------------------------------------|

Sec14

    Still      one     place   to   go.                      Stil
    1:06    |    1:07    |    1:08    |    1:09    |    1:10    |
------------------8------------------------8---------------------|
------------------8------------------------8---------------------|
------------------8--------7\--------------8--------7\-----------|
H7-5H7-5H7----X---8--X--X--6\--------X-----8--X--X--6\---------X-|
--------------X------X--X------------X--------X--X-------------X-|
-----------------------------------------------------------------|

Sec15

l    one    place  to   go.                Let me sleep all night
    1:11    |    1:12    |    1:13    |    1:14    |    1:15    |
----8------------------------------------------------------------|
----8------------------------------------------------------------|
----8--------7\-----------------------------------------9------7-|
----8--X--X--6\---------X----9--9--9--9-------------9-----9----7-|
-------X--X-------------X----7--7--7--7-------------7-------7----|
-----------------------------------------------------------------|

Sec16

  in  your       Soul     Kitchen.          Warm my mind   near y
    1:16    |    1:17    |    1:18    |    1:19    |    1:20    |
-----------------------------------------------------------------|
-----------------------------------------------------------------|
------7-------9-------7---7-----7----------9------7-------7------|
7-----7-------9-------7---7-----7------9-----9----7-7-----7------|
--5-------X--------X---------X---------X-------7------5-------X--|
-----------------------------------------------------------------|

Sec17

our gentle stove.            Turn  me out and I'll wander    baby
    1:21    |    1:22    |    1:23    |    1:24    |    1:25    |
-----------------------------------------------------------------|
-----------------------------------------------------------------|
-9-------7---7-----7----------9------7-------7--------9------7---|
-9-------7---7-----7------9-----9----7-7-----7--------9------7---|
------X---------X---------X-------7------5-------X-------X-------|
-----------------------------------------------------------------|

Sec18

,           stumblin' in the neon     groves.            Well, yo
    1:26    |    1:27    |    1:28    |    1:29    |    1:30    |
-----------------------------------------------------------------|
-----------------------------------------------------------------|
7----------------------------------------------------------------|
7-----9---9---9---9---9---9---9---9---9---9---9---9---9---9---9--|
---X--7---7---7---7---7---7---7---7---7---7---7---7---7---7---7--|
-----------------------------------------------------------------|

Sec19

ur fingers weave quick   minarets.              Speak   in     se
    1:31    |    1:32    |    1:33    |    1:34    |    1:35    |
-----8-------------------------8-------------------------8-------|
-----8-------------------------8-------------------------8-------|
-----8---------7P5H7P5---------8---------7P5H7P5---------8-------|
-X---8---X-5-X-5-------7--X----8---X-5-X-5-------7--X----8---X-5-|
-X-------X-0-X------------X--------X-0-X------------X--------X-0-|
-----------------------------------------------------------------|

Sec20


cret      alphabets.             I light     another          cig
    1:36    |    1:37    |    1:38    |    1:39    |    1:40    |
------------------8-------------------------8--------------------|
------------------8-------------------------8--------------------|
--7P5H7P5---------8---------7P5H7P5---------8---------7P5H7P5----|
X-5-------7--X----8---X-5-X-5-------7--X----8---X-5-X-5-------7--|
X------------X--------X-0-X------------X--------X-0-X------------|
-----------------------------------------------------------------|

Sec21

arette.                   Learn          to  forget,
    1:41    |    1:42    |    1:43    |    1:44    |    1:45    |
-----8-------------------------8-------------------------8-------|
-----8-------------------------8-------------------------8-------|
-----8---------7P5H7P5---------8---------7P5H7P5---------8-------|
X----8---X-5-X-5-------7--X----8---X-5-X-5-------7--X----8---X-5-|
X--------X-0-X------------X--------X-0-X------------X--------X-0-|
-----------------------------------------------------------------|

Sec22

              learn       to   forget,
    1:46    |    1:47    |    1:48    |    1:49    |    1:50    |
-------------------8-------------------------8--------------------|
-------------------8-------------------------8--------------------|
--7P5H7P5----------8---------7P5H7P5---------8----------7P5H7P5---|
X-5-------7--X-----8---X-5-X-5-------7--X----8----X-5-X-5-------7-|
X------------X---------X-0-X------------X---------X-0-X-----------|
------------------------------------------------------------------|

Sec23

   learn     to   forget,                               learn
    1:51    |    1:52    |    1:53    |    1:54    |    1:55    |
-------8--------------------------8--------------------------8---|
-------8--------------------------8--------------------------8---|
-------8---------7P5H7P5----------8---------7P5H7P5----------8---|
--X----8---X-5-X-5-------7--X-----8---X-5-X-5-------7--X-----8---|
--X--------X-0-X------------X---------X-0-X------------X---------|
-----------------------------------------------------------------|

Sec24

    to   forget.                      Let me sleep all night  in
    1:56    |    1:57    |    1:58    |    1:59    |    2:00    |
-----------------------------------------------------------------|
-----------------------------------------------------------------|
-------7P5H7P5-----9---9---9---9---9---9---9--------9------7-----|
-X-5-X-5-------7---9---9---9---9---9---9---9----9-----9----7-7---|
-X-0-X-------------7---7---7---7---7---7---7----7-------7------5-|
-----------------------------------------------------------------|

Sec25

your       Soul   Kitchen.           Warm my mind  near your gent
    2:01    |    2:02    |    2:03    |    2:04    |    2:05    |
-----------------------------------------------------------------|
-----------------------------------------------------------------|
--7-------9-------7---7-----7-----------9------7-------7-------9-|
--7-------9-------7---7-----7-------9-----9----7-7-----7-------9-|
------X--------X---------X----------X-------7------5-------X-----|
-----------------------------------------------------------------|

Sec26

le   stove.              Turn me outand I'll wander,    baby.
    2:06    |    2:07    |    2:08    |    2:09    |    2:10    |
-----------------------------------------------------------------|
-----------------------------------------------------------------|
------7---7-----7-------------9------7-------7-------9-------7---|
------7---7-----7---------9-----9----7-7-----7-------9-------7---|
---X---------X------------X-------7------5-------X--------X------|
-----------------------------------------------------------------|

Sec27

        Stumblin' in the neon        groves.
    2:11    |    2:12    |    2:13    |    2:14    |    2:15    |
-----------------------------------------------------------------|
-----------------------------------------------------------12\---|
7----------------------------------------------------------------|
7-------9---9---9---9---9---9---9---9---9---9---9---9---X--------|
---X----7---7---7---7---7---7---7---7---7---7---7---7---X--------|
-----------------------------------------------------------------|

Sec28


    2:16    |    2:17    |    2:18    |    2:19    |    2:20    |
-----------------------------------------------------------------|
------9\-------7-h9----9/-7--------------------------------------|
----------------------------7/--7h9P7S5----5---7/---7/--------7/-|
----------------------------------------7------------------------|
-----------------------------------------------------------------|
-----------------------------------------------------------------|

Sec29


    2:21    |    2:22    |    2:23    |    2:24    |    2:25    |
------------------------------------------------------------------|
---------------------------------------------------------------10-|
---7/-------7/-------7/---7H9-9P7------------------------7--9-----|
-----------------------------------9--7--S5--7-----7--9-----------|
------------------------------------------------------------------|
------------------------------------------------------------------|

Sec30


    2:26    |    2:27    |    2:28    |    2:29    |    2:30    |
------------------------------------------------------------------|
---12\--12-P10-----10--12--15\-----15\-----12P10--12--12--10---12-|
----------------12------------------------------------------------|
------------------------------------------------------------------|
------------------------------------------------------------------|
------------------------------------------------------------------|

Sec31


    2:31    |    2:32    |    2:33    |    2:34    |    2:35    |
----------------------------------------------------------15\----|
--15\---12---15\--12----15\---12---15\--12--15\--12---15---------|
-----------------------------------------------------------------|
-----------------------------------------------------------------|
-----------------------------------------------------------------|
-----------------------------------------------------------------|

Sec32


    2:36    |    2:37    |    2:38    |    2:39    |    2:40    |
----17\----17\-----12P10-12-10H12P10-------10-12\----------------|
--------------------------------------10-12-----------10--10P-S7-|
----------------------------------------------------9-----9---S7-|
-----------------------------------------------------------------|
-----------------------------------------------------------------|
-----------------------------------------------------------------|

Sec33


    2:41    |    2:42    |    2:43    |    2:44    |    2:45    |
------------------------------------------------------------------|
----8P7-----------------------------------------------------------|
--------9-P7----9--P7-S5----5-7----7/----7--7/----7--7/----7/--7--|
--------------------------7---------------------------------------|
------------------------------------------------------------------|
------------------------------------------------------------------|

Sec34


    2:46    |    2:47    |    2:48    |    2:49    |    2:50    |
-------------------------------8------------------------8---------|
-------------------------------8------------------------8---------|
----7/-------------------------8---------7P5H7P5--------8---------|
------------------------7-X----8---X-5-X-5-------7-X----8---X-5-X-|
------------------------0-X--------X-0-X---------0-X--------X-0-X-|
------------------------------------------------------------------|

Sec35


    2:51    |    2:52    |    2:53    |    2:54    |    2:55    |
----------------8-------------------------8----------------------|
----------------8-------------------------8----------------------|
-7P5H7P5--------8---------7P5H7P5---------8---------7P5H7P5------|
-5-------7-X----8---X-5-X-5-------7-X-----8---X-5-X-5-------7-X--|
---------0-X--------X-0-X---------0-X---------X-0-X---------0-X--|
-----------------------------------------------------------------|

Sec36


    2:56    |    2:57    |    2:58    |    2:59    |    3:00    |
---8--------------------------8-------------------------8---------|
---8--------------------------8-------------------------8---------|
---8---------7P5H7P5----------8---------7P5H7P5---------8---------|
---8---X-5-X-5-------7-X------8---X-5-X-5-------7-X-----8---X-5-X-|
-------X-0-X---------0-X----------X-0-X---------0-X---------X-0-X-|
------------------------------------------------------------------|

Sec37


    3:01    |    3:02    |    3:03    |    3:04    |    3:05    |
-----------------8-------------------------8---------------------|
-----------------8-------------------------8---------------------|
-7P5H5P5---------8---------7P5H7P5---------8---------7P5H7P5-----|
-5-------7-X-----8---X-5-X-5-------7-X-----8---X-5-X-5-------7-X-|
---------0-X---------X-0-X---------0-X---------X-0-X---------0-X-|
-----------------------------------------------------------------|

Sec38


    3:06    |    3:07    |    3:08    |    3:09    |    3:10    |
-----8-------------------------8-------------------------8-------|
-----8-------------------------8-------------------------8-------|
-----8---------7P5H7P5---------8---------7P5H7P5---------8-------|
-----8---X-5-X-5-------7-X-----8---X-5-X-5-------7-X-----8---X-5-|
---------X-0-X---------0-X---------X-0-X---------0-X---------X-0-|
-----------------------------------------------------------------|

Sec39


    3:11    |    3:12    |    3:13    |    3:14    |    3:15    |
-------------------8---------------------------8-----------------|
-------------------8---------------------------8-----------------|
--7P5H7P5----------8----------7P5H7P5----------8------------7\---|
X-5-------7-X------8----X-5-X-5-------7-X------8------------6\---|
X---------0-X-----------X-0-X---------0-X------------------------|
-----------------------------------------------------------------|

Sec40


    3:16    |    3:17    |    3:18    |    3:19    |    3:20    |
-----------8-------------------------8---------------------------|
-----------8-------------------------8---------------------------|
-----------8--------7\---------------8--------7\-----------------|
-----X-----8--X--X--6\---------X-----8--X--X--6\------------X----|
-----X--------X--X-------------X--------X--X----------------X----|
-----------------------------------------------------------------|

Sec41


    3:21    |    3:22    |    3:23    |    3:24    |    3:25    |
-8-------------------------8-------------------------------------|
-8-------------------------8-------------------------------------|
-8-------6-H8--X-X---------8-----------7\----9-------------------|
-8--X----6-----X-7P6-X-----8-----X-----6\----9-------------------|
----X----------------X-----------X-----------7-------------------|
-----------------------------------------------------------------|

Sec42


    3:26    |    3:27    |    3:28    |    3:29    |    3:30    |
-----------------------------------------------------------------|
-----------------------------------------------------------------|
-----------------------------------------------------------------|
-----------------------------------------------------------------|
-----------------------------------------------------------------|
-----------------------------------------------------------------|

Sec43


    3:31    |    3:32    |
--------------------------|
--------------------------|
--------------------------|
--------------------------|
--------------------------|
--------------------------|


Versions and Corrections
_V.1___   -Sumbitted (15FEB2015)            
Submit corrections


        Soul Kitchen lessons Hard to play? Try these video lessons and learn fast Soul Kitchen lessons
        
↑ Back to top | Tablatures and chords for acoustic guitar and electric guitar, ukulele, drums are parodies/interpretations of the original songs. You may use it for private study, scholarship, research or language learning purposes only