» » »

Doors - Roadhouse Blues Tabs

Artists:  A B C D E F G H I J K L M N O P Q R S T U V W X Y Z # 

Roadhouse Blues Tabs

(ver. 2) Click to play this song!
Doors
 Rating:
4/5 (4 votes)

 Roadhouse Blues lessons Tabs too difficult? Try these video lessons and learn fast
 
                e|------------------------------------------------------------------------
B|------------------------------------------------------------------------
G|------------------------------------------------------------------------
D|------------------------------------------------------------------------
A|-------------------------------5h6h7-------------5h6h7-------------5h6h7
E|-0-0-0-0-0-0-5h6h7-0-0-0-0-0-0-------0-0-0-0-0-0-------0-0-0-0-0-0------

|--------------------------------|
|--------------------------------|
|-------------------5------------|
|-------------------5------------|
|---------------------7-5-7---5--|
|-0-0-0-0-0-0-5h6h7---------7---7|

|-------------------------------------------------------------------
|-------------------------------------------------------------------
|------------------------------------------------------5------------
|------------------------------------------------------5------------
|------------5h6h7-------------5h6h7-------------5h6h7---7-5-7---5--
|-0-0-0-0-0-0------0-0-0-0-0-0-------0-0-0-0-0-0---------------7---7

|--------------------------------------------------------------------------------
|--------------------------------------------------------------------------------
|-------------------------------------------------------5------------------------
|-------------------------------------------------------5------------------------
|-------------5h6h7-------------5h6h7---------------------7-5-7---5---5---5---2--
|-0-0-0-0-0-0-------0-0-0-0-0-0-------0-0-0-0-0-0-5h6h7---------7---7---7---7---7

|---------------------------------------------------------------------|
|---------------------------------------------------------------------|
|----------------------------------------------------2-2-2-2-2-2-2-2--|
|--------------------5-5-5-4-4-4-2-2-2---------------2-2-2-2-2-2-4-2--|
|-------------------------------------4-4-4----------0-0-3-4-0-0---0--|
|-7-6-5-3-5-0-0-5h6h7-------------------------------------------------|

|----------------------------------------------------|
|----------------------------------------------------|
|-2-2-2-2-2-2-2-2--2-2-2-2-2-2-2-2--2-2-2-2-2-2-2-2--|
|-2-2-2-2-2-2-4-2--2-2-2-2-2-2-4-2--2-2-2-2-2-2-4-2--|
|-0-0-3-4-0-0---0--0-0-3-4-0-0---0--0-0-3-4-0-0---0--|
|----------------------------------------------------|

|---------------------------------|
|---------------------------------|
|---------------------------------|
|-4-4-4-4-4-4-4-4-4-4-4-4-5-5-5-4-|
|-2-2-2-2-2-2-2-2-2-2-2-2-3-3-3-2-|
|---------------------------------|

the solo is all improv.

heres the scale for the solo. obviosly you can use more that just those frets so you can try and figure the rest out. im to lazy to tab anymore
|-12-15-|
|-12-15-|
|-12-14-|
|-12-14-|
|-12-14-|
|-12-15-|
            
Submit corrections


        Roadhouse Blues lessons Hard to play? Try these video lessons and learn fast Roadhouse Blues lessons
        
↑ Back to top | Tablatures and chords for acoustic guitar and electric guitar, ukulele, drums are parodies/interpretations of the original songs. You may use it for private study, scholarship, research or language learning purposes only