» » »

Doors - Riders On The Storm Tabs

Artists:  A B C D E F G H I J K L M N O P Q R S T U V W X Y Z # 

Riders On The Storm Tabs

(ver. 2) Click to play this song!
Doors
 Rating:
4/5 (4 votes)

 Riders On The Storm lessons Tabs too difficult? Try these video lessons and learn fast
 
                ^ = bend
/ = slide


e-----------|----------------|-----------|-------------|--2-2-----0-0-|
B-----------|----------------|-----------|-------------|--3-3-----0-1-|
G-----------|----------------|-----------|-------------|--2-2-----0-0-|
D-----------|----------------|-----------|--2-0--------|--0-0---2-2-2-|
A--2-2-2-0-2|-2--2-2-2-0-2-0-|-0--0-0-3-0|-----2-0-----|-------3----3-|
E-----------|---------------2|-----------|--------3-0-5|--------------|

keyboard begins to play next riff then guitar joins with the following

e-------------------|------------------|------7--8-8--10-10-|
B---0-0-2-2-3-3-2-2-|-0-0-2-2-3-3-2-2--|-5-5--7--8-8--12-12-|
G----0---0---0---0-0|--0---0---0---0-0-|---------9-9--11-11-|
D-------------------|------------------|--------------------|
A-------------------|------------------|--------------------|
E-------------------|------------------|--------------------|

e-------------------|-----------------------------0---0-0---------------------------
B---0-0-2-2-3-3-2-2-|-------------------------0-2---0-----3-0-----------------------
G----0---0---0---0-0|---------0-----------0-2-----------------2^2-0-----------------
D-------------------|--2--2-2--2------0-2---------------------------2-2--0----------
A-------------------|-------------0-2--------------------------------------2--0--0-3
E-------------------|---------------------------------------------------------------

e--------------------0-------------------------------2-2-----0-0-|------------------
B----------------2-0---2-2/4-4-2-0----2/4-4-2-0-4----3-3-----0-1-|--0-0-2-2-3-3-2-2-
G----------2-0----------------------2----------------2-2-----0-0-|---0---0---0---0-0
D----2-0-------2-----------------------------------0-0-0---2-2-2-|------------------
A-0------2------------------------------------------------3--3-3-|------------------
E----------------------------------------------------------------|------------------

                    play this durring keyboard solo. u can mess around with and stuff.
e------------------|-12--14---15--14|
B-0-0-2-2-3-3-2----|-12--14---15--14|
G--0---0---0---0-0-|-12--14---16--14|
D------------------|----------------|
A------------------|----------------|
E------------------|----------------|
            
Submit corrections


        Riders On The Storm lessons Hard to play? Try these video lessons and learn fast Riders On The Storm lessons
        
↑ Back to top | Tablatures and chords for acoustic guitar and electric guitar, ukulele, drums are parodies/interpretations of the original songs. You may use it for private study, scholarship, research or language learning purposes only