» » »

Doors - Light My Fire Tabs

Artists:  A B C D E F G H I J K L M N O P Q R S T U V W X Y Z # 

Light My Fire Tabs

(ver. 2) Click to play this song!
Doors
 Rating:
4/5 (4 votes)

 Light My Fire lessons Tabs too difficult? Try these video lessons and learn fast
 
                This is a different way of playing it.

-----------------------1------------------------------------------------------
-0---0-3-1-0---------1---3--------------1-------------------------------------
---2---------2-0-2----------3-1-0-1-0-3---3-0---------------------------------
-------------------3--------------------------1-3-----------------------------
   This is just the cool intro...                                             

-0--0-0-0--0---0---0-0-0------------------------------------------------------
-2--2-2-2--2---2---2-2-2------1---1---1-0-------------------------------------
-2--2-2-2--2---2---2-2-2----2---2---2-----2-----------------------------------
                            You know that it would be untrue...               

---------------------2-2-2----------------------------------------------------
---1---1---1-0-------2-2-2----------------1---1---1---------------------------
-2---2---2-----2-----2-2-2------------------2---2-----0-2---------------------
 You know that I would be a liar,       If I was to say to you                

-----------------2-2----------------------------------------------------------
-1---1---1-------2-2----------------------------------------------------------
---2---2---0-----2-2--------------------0-0-0-0-------------------------------
-------------------------------------------------4-4-0---------------2x-------
 Girl we couldn't get much higher       Come on baby light my fire            

------------------------------------------0-3-0-3-0-3-0-----------------------
--------------------------------------------------------3---------------------
-0-0-0-0----------------------------------------------------------------------
----------4-4-2---------------------------------------------------------------
 Try to set the night on fire.            The time to hesitate is through     

-0-3-0-3-0-3-0-------------------------3-0-3-0-3-0----------------------------
----------------3-----------------------------------3-------------------------
 No time to wallow in the mire.        Try now we can only lose.              

-3-0-3-0-3-0-3-0----------------------------------2-2-------------------------
------------------3-----------------------3-3-3-3-----3-----------------------
------------------------------------------0-----------------------------------
 And our love become a funeral pyre.      Come on baby light my fire.         

-1---1---1-0-1------------------------------0-0-1-----------------------------
---3---3--------3-------------------3-1-3-1-------3---------------------------
 Come on baby light my fire.        Try to set the night on fire.             

--5-5-5-5--3-3--5-5--------------------------------------1--------------------
----------------3-3--------------0----0-3-1-0----------1---3-------------1----
------------------------------------2----------2-0-2---------3-1-0-1-0-3---3--
-----------------------------------------------------3------------------------
  Try to set the night on fire.                                               

-0----------------------------------------------------------------------------
---1-3------------------------------------------------------------------------
            
Submit corrections


        Light My Fire lessons Hard to play? Try these video lessons and learn fast Light My Fire lessons
        
↑ Back to top | Tablatures and chords for acoustic guitar and electric guitar, ukulele, drums are parodies/interpretations of the original songs. You may use it for private study, scholarship, research or language learning purposes only