» » »

Doors - La Woman Bass

Artists:  A B C D E F G H I J K L M N O P Q R S T U V W X Y Z # 

La Woman Bass

(ver. 3) Click to play this song!
Doors
 Rating:
4/5 (4 votes)

 La Woman lessons Tabs too difficult? Try these video lessons and learn fast
 
                Gtr I (E A D G) - 'Jerry Scheff - Bass'


 Intro
  Q=170
 4/4
  Gtr I
  W          W          W          H    Q  E E
|----------|----------|----------|--------------|
|----------|----------|----------|--------------|
|----------|----------|----------|--------------|
|----------|----------|----------|---------3h4--|


    E E E E E E E E  4x     E E E E E E E E  4x
||-------------------||-||-------------------||
||o-----------------o||-||o-----------------o||
||o-----------------o||-||o-----------------o||
||--5-5-5-5-5-0-3h4--||-||--5-5-5-5-5-0-3h4--||


  E E E E E E E E   E E E E E E E E
|-----------------|-----------------|
|-----------------|-----------------|
|-----------------|-----------------|
|-5-5-5-5-5-0-3h4-|-5-5-5-5-5-0-3h4-|


  E E E E E E E E   E E E E E E E E   E E E E E E E E   E E E E E E E E
|-----------------|-----------------|-----------------|-----------------|
|-----------------|-----------------|-----------------|-----------------|
|-----------------|-----------------|-----------------|-----------------|
|-5-5-5-5-5-0-3h4-|-5-5-5-5-5-0-3h4-|-5-5-5-5-5-0-3h4-|-5-5-5-5-5-0-3h4-|


  E E E E E E E E   E E E E E E E E   E E E E E E E E   E E E E E E E E
|-----------------|-----------------|-----------------|-----------------|
|-----------------|-----------------|-----------------|-----------------|
|-----------------|-----------------|-----------------|-----------------|
|-5-5-5-5-5-0-3h4-|-5-5-5-5-5-0-3h4-|-5-5-5-5-5-0-3h4-|-5-5-5-5-5-0-3h4-|


  E E E E E E E E   E E E E E E E E   E E E E E E E E   E E E E E E E E
|-----------------|-----------------|-----------------|-----------------|
|-----------------|-----------------|-----------------|-----------------|
|-----------------|-----------------|-----------------|-----------------|
|-5-5-5-5-5-0-3h4-|-5-5-5-5-5-0-3h4-|-5-5-5-5-5-0-3h4-|-5-5-5-5-5-0-3h4-|


  E E E E E E E E   E E E E E E E E   E E E E E E E E   E E E E E E E E
|-----------------|-----------------|-----------------|-----------------|
|-----------------|-----------------|-----------------|-----------------|
|-----------------|-----------------|-----------------|-----------------|
|-5-5-5-5-5-0-3h4-|-5-5-5-5-5-0-3h4-|-5-5-5-5-5-0-3h4-|-5-5-5-5-5-0-3h4-|


  E E E E E E E E   E E E E E E E E   E E E E E E E E   E E E E E E E E
|-----------------|-----------------|-----------------|-----------------|
|-----------------|-----------------|-----------------|-----------------|
|-----------------|-----------------|-----------------|-----------------|
|-5-5-5-5-5-0-3h4-|-5-5-5-5-5-0-3h4-|-5-5-5-5-5-0-3h4-|-5-5-5-5-5-0-3h4-|


                    1st Verse
  E E E E E E E E    E E E E E E E E   E E E E E E E E   E E E E E E E E
|-----------------||-----------------|-----------------|-----------------|
|-----------------||-----------------|-----------------|-----------------|
|-----------------||-----------------|-----------------|-----------------|
|-5-5-5-5-5-0-3h4-||-5-5-5-5-5-0-3h4-|-5-5-5-5-5-0-3h4-|-5-5-5-5-5-0-3h4-|


  E E E E E E E E   E E E E E E E E   E E E E E E E E   E E E E E E E E
|-----------------|-----------------|-----------------|-----------------|
|-----------------|-----------------|-----------------|-----------------|
|-----------------|-----------------|-----------------|-----------------|
|-5-5-5-5-5-0-3h4-|-5-5-5-5-5-0-3h4-|-5-5-5-5-5-0-3h4-|-5-5-5-5-5-0-3h4-|


  E E E E E E E E   E E E E E E E E   E E E E E E E E   E E E E E E E E
|-----------------|-----------------|-----------------|-----------------|
|-----------------|-----------------|-----------------|-----------------|
|-----------------|-----------------|-----------------|-----------------|
|-5-5-5-5-5-0-3h4-|-5-5-5-5-5-0-3h4-|-5-5-5-5-5-0-3h4-|-5-5-5-5-5-0-3h4-|


  E E E E E E E E   E E E E E E E E   E E E E E E E E   E E E E E E E E
|-----------------|-----------------|-----------------|-----------------|
|-----------------|-----------------|-----------------|-----------------|
|-----------------|-----------------|-----------------|-----------------|
|-5-5-5-5-5-0-3h4-|-5-5-5-5-5-0-3h4-|-5-5-5-5-5-0-3h4-|-5-5-5-5-5-0-3h4-|


  E E E E E E E E   E E E E E E E E   E E E E E E E E   E E E E E E E E
|-----------------|-----------------|-----------------|------------------|
|-----------------|-----------------|-----------------|------------------|
|-----------------|-----------------|-----------------|------------------|
|-5-5-5-5-5-0-3h4-|-5-5-5-5-5-0-3h4-|-5-5-5-5-5-0-5-5-|-3-3-3-3-3-3-3-3/-|


  E E E Q  E Q    Q  Q  E E E E   E E Q  E E Q    E E E E E E E E
|---------------|---------------|---------------|------------------|
|-------5----7--|---------------|---------------|------------------|
|---5-7----7----|---------------|---------------|------------------|
|-7-------------|-5--5--5-0-3h4-|-5-5-5--5-3-5--|-3-3-3-3-3-3-3-3/-|


                                    Guitar Solo
  E E E Q  E Q    E E E E E E E E    E E E E E E E E   E E E E E E E E
|---------------|-----------------||-----------------|-----------------|
|-------5----7--|-----------------||-----------------|-----------------|
|---5-7----7----|-----------------||-----------------|-----------------|
|-7-------------|-5-5-5-5-5-0-3-4-||-5-5-5-5-5-0-3-4-|-5-5-5-5-5-0-3-4-|


  E E E E E E E E   E E E E E E E E   E E E E E E E E   E E E E E E E E
|-----------------|-----------------|-----------------|-----------------|
|-----------------|-----------------|-----------------|-----------------|
|-----------------|-----------------|-----------------|-----------------|
|-5-5-5-5-5-0-3-4-|-5-5-5-5-5-0-3-4-|-5-5-5-5-5-0-3-4-|-5-5-5-5-5-0-3-4-|


  E E E E E E E E   E E E E E E E E   E E E E E E E E   E E E E E E E E
|-----------------|-----------------|-----------------|-----------------|
|-----------------|-----------------|-----------------|-----------------|
|-----------------|-----------------|-----------------|-----------------|
|-5-5-5-5-5-0-3-4-|-5-5-5-5-5-0-3-4-|-5-5-5-5-5-0-3-4-|-5-5-5-5-5-0-3-4-|


  E E E E E E E E   E E E E E E E E   E E E E E E E E   E E E E E E E E
|-----------------|-----------------|-----------------|-----------------|
|-----------------|-----------------|-----------------|-----------------|
|-----------------|-----------------|-----------------|-----------------|
|-5-5-5-5-5-0-3-4-|-5-5-5-5-5-0-3-4-|-5-5-5-5-5-0-3-4-|-5-5-5-5-5-0-3-4-|


  E E E E E E E E   E E E E E E E E   E E E E E E E E   E E E E E E E E
|-----------------|-----------------|-----------------|-----------------|
|-----------------|-----------------|-----------------|-----------------|
|-----------------|-----------------|-----------------|-----------------|
|-5-5-5-5-5-0-3-4-|-5-5-5-5-5-0-3-4-|-5-5-5-5-5-0-3-4-|-5-5-5-5-5-0-3-4-|


  E E E E E E E E   E E E E E E E E   E E E E E E E E   E E E E E E E E
|-----------------|-----------------|-----------------|-----------------|
|-----------------|-----------------|-----------------|-----------------|
|-----------------|-----------------|-----------------|-----------------|
|-5-5-5-5-5-0-3-4-|-5-5-5-5-5-0-3-4-|-5-5-5-5-5-0-3-4-|-5-5-5-5-5-0-3-4-|


  E E E E E E E E   E E E E E E E E   E E E E E E E E   E E E E E E E E
|-----------------|-----------------|-----------------|-----------------|
|-----------------|-----------------|-----------------|-----------------|
|-----------------|-----------------|-----------------|-----------------|
|-5-5-5-5-5-0-3-4-|-5-5-5-5-5-0-3-4-|-5-5-5-5-5-0-3-4-|-5-5-5-5-5-0-3-4-|


  E E E E E E E E   E E E E E E E E   E E E E E E E E   E E E E E E E E
|-----------------|-----------------|-----------------|-----------------|
|-----------------|-----------------|-----------------|-----------------|
|-----------------|-----------------|-----------------|-----------------|
|-5-5-5-5-5-0-3-4-|-5-5-5-5-5-0-3-4-|-5-5-5-5-5-0-3-4-|-5-5-5-5-5-0-3-4-|


  E E E E E E E E   E E E E E E E E   E E E E E E E E   E E E E E E E E
|-----------------|-----------------|-----------------|-----------------|
|-----------------|-----------------|-----------------|-----------------|
|-----------------|-----------------|-----------------|-----------------|
|-5-5-5-5-5-0-3-4-|-5-5-5-5-5-0-3-4-|-5-5-5-5-5-0-3-4-|-5-5-5-5-5-0-3-4-|


  E E E E E E E E   E E E E E E E E   E E E E E E E E   E E E E E E E E
|-----------------|-----------------|-----------------|-----------------|
|-----------------|-----------------|-----------------|-----------------|
|-----------------|-----------------|-----------------|-----------------|
|-5-5-5-5-5-0-3-4-|-5-5-5-5-5-0-3-4-|-5-5-5-5-5-0-3-4-|-5-5-5-5-5-0-3-4-|


  E E E E E E E E   E E E E E E E E   E E E E E E E E   Q.   E E E E E
|-----------------|-----------------|-----------------|----------------|
|-----------------|-----------------|-----------------|----------------|
|-----------------|-----------------|-----------------|----------------|
|-5-5-5-5-5-0-3-4-|-5-5-5-5-5-0-3-4-|-5-5-5-5-5-0-5-5-|-3----3-3-3-3-3-|


                                                      Piano Solo
  E E E Q  E Q    E E E E E E E E   E E E E E E E E    E E E E E E E E
|---------------|-----------------|-----------------||-----------------|
|-------5----7--|-----------------|-----------------||-----------------|
|---5-7----7----|-----------------|-----------------||-----------------|
|-7-------------|-5-5-5-5-5-3-5-5-|-5-5-5-5-5-3-5-5-||-3-3-3-3-3-3-3-3-|


  E E E Q  E Q    E E E E E E E E   E E E E E E E E   E E E E E E E E
|---------------|-----------------|-----------------|-----------------|
|-------5----7--|-----------------|-------------5h7-|-----------------|
|---5-7----7----|-----------------|---------5h7-----|-----------------|
|-7-------------|-5-5-5-5-5-0-3-4-|-5-5-5-5---------|-5-5-5-5-5-0-3-4-|


  E E E E E E E E   E E E E E E E E   E E E E E E E E   E E E E E E E E
|-----------------|-----------------|-----------------|-----------------|
|-----------------|-----------------|-----------------|-----------------|
|-----------------|-----------------|-----------------|-----------------|
|-5-5-5-5-5-0-3-4-|-5-5-5-5-5-0-3-4-|-5-5-5-5-5-0-3-4-|-5-5-5-5-5-0-3-4-|


  E E E E E E E E   E E E E E E E E   E E E E E E E E   E E E E E E E E
|-----------------|-----------------|-----------------|-----------------|
|-----------------|-----------------|-----------------|-----------------|
|-----------------|-----------------|-----------------|-----------------|
|-5-5-5-5-5-0-3-4-|-5-5-5-5-5-0-3-4-|-5-5-5-5-5-0-3-4-|-5-5-5-5-5-0-3-4-|


  E E E E E E E E   E E E E E E E E   E E E E E E E E   E E E E E E E E
|-----------------|-----------------|-----------------|-----------------|
|-----------------|-----------------|-----------------|-----------------|
|-----------------|-----------------|-----------------|-----------------|
|-5-5-5-5-5-0-3-4-|-5-5-5-5-5-0-3-4-|-5-5-5-5-5-0-3-4-|-5-5-5-5-5-0-3-4-|


                                                         Interlude
  E E E E E E E E   E E E E E E E E   E E E E E E E E     E E E Q  E E E  8x
|-----------------|-----------------|-----------------||------------------||
|-----------------|-----------------|-----------------||o-----7-5--------o||
|-----------------|-----------------|-----------------||o-4-7------7-4-5-o||
|-5-5-5-5-5-0-3-4-|-5-5-5-5-5-0-3-4-|-5-5-5-5-5-0-3-4-||------------------||


    E E E Q  E E E   E E E Q  E E E   E E E Q  E E E   E E E Q  E E E
||-----------------|----------------|----------------|------------------||
||o-----7-5--------|-----7-5--------|-----7-5--------|-----7-5---------o||
||o-4-7------7-4-5-|-4-7------7-4-5-|-4-7------7-4-5-|-4-7------7-4-5--o||
||-----------------|----------------|----------------|------------------||


    E E E Q  E E E   E E E Q  E E E         E E E Q  E E E   E E E Q  E E E
||-----------------|-----------------||-||-----------------|-----------------||
||o-----7-5--------|-----7-5--------o||-||o-----7-5--------|-----7-5--------o||
||o-4-7------7-4-5-|-4-7------7-4-5-o||-||o-4-7------7-4-5-|-4-7------7-4-5-o||
||-----------------|-----------------||-||-----------------|-----------------||


  E E E Q  E E E   E E E Q  E E E     E E E Q  E E E   E E E Q  E E E  3x
|----------------|----------------||-----------------|-----------------||
|-----7-5--------|-----7-5--------||o-----7-5--------|-----7-5--------o||
|-4-7------7-4-5-|-4-7------7-4-5-||o-4-7------7-4-5-|-4-7------7-4-5-o||
|----------------|----------------||-----------------|-----------------||


  Q  Q  Q  E E   Q  Q  Q  E E   Q  Q  Q  E E   E E E E E E E E
|--------------|--------------|--------------|-----------------|
|-7--7--7--7-7-|-7--7--7--7-7-|-7--7--7--7-7-|-7-7-7-7-7-7-7-7-|
|--------------|--------------|--------------|-----------------|
|--------------|--------------|--------------|-----------------|


  E E E E Q   Q    Q.   E E E E E    E E E Q  E Q    Q  Q  E E E E
|----------------|-----------------|---------------|---------------|
|-7-7-7-7--------|-----------------|-------5----7--|---------------|
|---------7\-----|-----------------|---5-7----7----|-5--7--7-7-7-7-|
|-------------5--|-3----3-3-3-3-3/-|-7-------------|---------------|


  E E E E +E  E Q    E E E E E E E E    E E E Q  E Q    E E E E E E E E
|------------------|------------------|---------------|-----------------|
|------------------|------------------|-------5----7--|-----------------|
|-6-5-3------------|------------------|---5-7----7----|-----------------|
|-------5-(5)-0-7--|-3-3-3-3-3-3-3-3/-|-7-------------|-5-5-5-5-5-0-3-4-|


  E E E E E E E E   E E E E E E E E   E E E E E E E E   E E E E E E E E
|-----------------|-----------------|-----------------|-----------------|
|-----------------|-----------------|-----------------|-----------------|
|-----------------|-----------------|-----------------|-----------------|
|-5-5-5-5-5-0-3-4-|-5-5-5-5-5-0-3-4-|-5-5-5-5-5-0-3-4-|-5-5-5-5-5-0-3-4-|


  E E E E E E E E   E E E E E E E E   E E E E E E E E   E E E E E E E E
|-----------------|-----------------|-----------------|-----------------|
|-----------------|-----------------|-----------------|-----------------|
|-----------------|-----------------|-----------------|-----------------|
|-5-5-5-5-5-0-3-4-|-5-5-5-5-5-0-3-4-|-5-5-5-5-5-0-3-4-|-5-5-5-5-5-0-3-4-|


                    Breakdown
                                 |--3--|            |--3---|   |--3--|
  E E E E E E E E    Q  Q  +E  E S +S  S E   Q  Q  +S  +S  S E S +S  S E
|-----------------||-----------------------|------------------------------|
|-----------------||----7--(7)-5-----------|----7--(7)-(7)-7-5-5-(5)-7-7\-|
|-----------------||-------------7-(7)-5-3-|------------------------------|
|-5-5-5-5-5-0-3-4-||-5---------------------|-5----------------------------|


              |--3--|             |-3-|                  |--3--| |--3--|
  Q  Q  +E  E S +S  S E   Q  Q  E S S S E E    Q  Q  +E  S +S  S S +S  S E
|-----------------------|--------------------|------------------------------|
|----7--(7)-5---------5-|----7----7-5---5-7\-|----7--(7)-7-(7)-7------------|
|-------------5h(5)h7---|-------------7------|-------------------6-(6)-5-3--|
|-5---------------------|-5------------------|-5----------------------------|


       |--3--|     |--3--|            |--3--| |--3--| |--3--|
  H    S +S  S E E S +S  S   H    +E  S +S  S S +S  S S +S  S
|--------------------------|-----------------------------------|
|--------------------------|-----------------------------------|
|--------------------------|-----------------------------------|
|-5----5-(5)-x-0-3-5-(5)-3-|-5----(5)-5-(5)-5-3-(3)-5-5-(5)-3--|


           |--3--| |--3--| |--3--|            |--3--| |--3--| |--3--|
  H    +E  S +S  S S +S  S S +S  S   H    +E  S +S  S S +S  S S +S  S
|----------------------------------|----------------------------------|
|----------------------------------|----------------------------------|
|----------------------------------|----------------------------------|
|-5----(5)-5-(5)-5-3-(3)-5-5-(5)-3-|-5----(5)-5-(5)-5-3-(3)-5-5-(5)-3-|


           |--3--| |--3--| |--3--|            |--3--| |--3--| |--3--|
  H    +E  S +S  S S +S  S S +S  S   H    +E  S +S  S S +S  S S +S  S
|----------------------------------|----------------------------------|
|----------------------------------|----------------------------------|
|----------------------------------|----------------------------------|
|-5----(5)-5-(5)-5-3-(3)-5-5-(5)-3-|-5----(5)-5-(5)-5-3-(3)-5-5-(5)-3-|


  H    +E  S S S S S S   Q  Q  Q  E E   E E Q  Q      E E   E E E E Q  E E
|----------------------|--------------|-------------------|-----------------|
|----------------------|--------------|-------------------|-----------------|
|----------------------|-------3------|--------3b3.5------|---------3-------|
|-5----(5)-5-5-3-5-5-3-|-5--5-----5-3-|-5-5-5---------5-3-|-5-5-5-5----5-3--|


  E E E E +Q   E E   E E E E Q  E E   E E E E +Q   E E   E E E E Q  E E
|------------------|----------------|------------------|----------------|
|------------------|----------------|------------------|----------------|
|-------3-(3)------|---------3------|-------3-(3)------|---------3------|
|-5-5-5--------5-3-|-5-5-5-5----5-3-|-5-5-5--------5-3-|-5-5-5-5----5-3-|


  E E E E +Q   E E   E E E E Q  E E   E E E E +Q   E E   E E E E Q  E E
|------------------|----------------|------------------|----------------|
|------------------|----------------|------------------|----------------|
|-------3-(3)------|---------3------|-------3-(3)------|---------3------|
|-5-5-5--------5-3-|-5-5-5-5----5-3-|-5-5-5--------5-3-|-5-5-5-5----5-3-|


  E E E E +Q   E E   E E E E Q  E E   E E E E +Q   E E   E E E E Q  E E
|------------------|----------------|------------------|----------------|
|------------------|----------------|------------------|----------------|
|-------3-(3)------|---------3------|-------3-(3)------|---------3------|
|-5-5-5--------5-3-|-5-5-5-5----5-3-|-5-5-5--------5-3-|-5-5-5-5----5-3-|


  E E E E +Q   E E   E E E E Q  E E   E E E E +Q   E E   E E E E Q  E E
|------------------|----------------|------------------|----------------|
|------------------|----------------|------------------|----------------|
|-------3-(3)------|---------3------|-------3-(3)------|---------3------|
|-5-5-5--------5-3-|-5-5-5-5----5-3-|-5-5-5--------5-3-|-5-5-5-5----5-3-|


  E E E E +Q   E E   E E E E Q  E E   E E E E +Q   E E   E E E E Q  E E
|------------------|----------------|------------------|----------------|
|------------------|----------------|------------------|----------------|
|-------3-(3)------|---------3------|-------3-(3)------|---------3------|
|-5-5-5--------5-3-|-5-5-5-5----5-3-|-5-5-5--------5-3-|-5-5-5-5----5-3-|


  E E E E +Q   E E   E E E E Q  E E   E E E E +Q   E E   E E E E Q  E E
|------------------|----------------|------------------|----------------|
|------------------|----------------|------------------|----------------|
|-------3-(3)------|---------3------|-------3-(3)------|---------3------|
|-5-5-5--------5-3-|-5-5-5-5----5-3-|-5-5-5--------5-3-|-5-5-5-5----5-3-|


  E E E E +Q   E E   E E E E Q  E E   E E E E +Q   E E   E E E E E E E E
|------------------|----------------|------------------|-----------------|
|------------------|----------------|------------------|-----------------|
|-------3-(3)------|---------3------|-------3-(3)------|---------3-------|
|-5-5-5--------5-3-|-5-5-5-5----5-3-|-5-5-5--------5-3-|-5-5-5-5-----5-3-|


  E E E E E E E E   E E E E E E E E   E E E E E E E E   E E Q  E E E E
|-----------------|-----------------|-----------------|----------------|
|-----------------|-----------------|-----------------|----------------|
|---------------2-|-3-3-3-3-3-3-3-3-|-3-3-3-3-3-------|-3-3------------|
|-5-5-5-5-5-5-5---|-----------------|-----------5-3-5-|-----0--0-1-3-3-|


  E E E E E E E E   E E E E E E E E   E E E E E E E E   E E E E E E E E
|-----------------|-----------------|-----------------|-----------------|
|-----------------|-----------------|-----------------|-----------------|
|-------2-3-3-2-3-|-5-5-5-5-5-------|-5-5-5-5-5-------|-5-5-5-5-5-------|
|-3-3-5-----------|-----------7-5-7-|-----------7-5-7-|-----------7-5-7-|


                    Outro
  E E E E E E E E    E E E E E E E E   E E E E E E E E   E E E E E E E E
|-----------------||-----------------|-----------------|-----------------|
|---------5---5-7-||-----------------|-----------------|-----------------|
|-5-5-5-7---7-----||-----------------|-----------------|-----------------|
|-----------------||-5-5-5-5-5-0-3-4-|-5-5-5-5-5-0-3-4-|-5-5-5-5-5-0-3-4-|


  E E E E E E E E   E E E E E E E E   E E E E E E E E   E E E E E E E E
|-----------------|-----------------|-----------------|-----------------|
|-----------------|-----------------|-----------------|-----------------|
|-----------------|-----------------|-----------------|-----------------|
|-5-5-5-5-5-0-3-4-|-5-5-5-5-5-0-3h4-|-5-5-5-5-5-0-3h4-|-5-5-5-5-5-0-3h4-|


  E E E E E E E E   E E E E E E E E   E E E E E E E E   E E E E E E E E
|-----------------|-----------------|-----------------|-----------------|
|-----------------|-----------------|-----------------|-----------------|
|-----------------|-----------------|-----------------|-----------------|
|-5-5-5-5-5-0-3h4-|-5-5-5-5-5-0-3h4-|-5-5-5-5-5-0-3h4-|-5-5-5-5-5-0-3h4-|


  E E E E E E E E   E E E E E E E E   E E E E E E E E   E E E E E E E E
|-----------------|-----------------|-----------------|-----------------|
|-----------------|-----------------|-----------------|-----------------|
|-----------------|-----------------|-----------------|-----------------|
|-5-5-5-5-5-0-3h4-|-5-5-5-5-5-0-3h4-|-5-5-5-5-5-0-3h4-|-5-5-5-5-5-0-3h4-|


  E E E E E E E E   E E E E E E E E   E E E E E E E E   E E E E E E E E
|-----------------|-----------------|-----------------|-----------------|
|-----------------|-----------------|-----------------|-----------------|
|-----------------|-----------------|-----------------|-----------------|
|-5-5-5-5-5-0-3h4-|-5-5-5-5-5-0-3h4-|-5-5-5-5-5-0-3h4-|-5-5-5-5-5-0-3h4-|


  E E E E E E E E   E E E E E E E E   E E E E E E E E   E E E E E E E E
|-----------------|-----------------|-----------------|------------------|
|-----------------|-----------------|-----------------|------------------|
|-----------------|-----------------|-----------------|------------------|
|-5-5-5-5-5-0-3h4-|-5-5-5-5-5-0-3h4-|-5-5-5-5-5-0-5-5-|-3-3-3-3-3-3-3-3/-|


  E E E Q  E Q    E E E E E E E E   +Q   Q  E E E E   E E Q  E E E E
|---------------|-----------------|-----------------|-----------------|
|-------5----7--|---------------7-|-(7)--5----------|-----------------|
|---5-7----7----|-7-7-7-7-7-5-7---|---------7-5-3---|-----------------|
|-7-------------|-----------------|---------------5-|-3-3-3--3-3-3-3/-|


  E E E Q  E Q    E E E E E E E E   E E E E E E E E   E E E E E E E E
|---------------|-----------------|-----------------|-----------------|
|-------5----7--|-----------------|-----------------|-----------------|
|---5-7----7----|-----------------|-----------------|-----------------|
|-7-------------|-5-5-5-5-5-0-3-4-|-5-5-5-5-5-0-3-4-|-5-5-5-5-5-0-3-4-|


  E E E E E E E E   E E E E E E E E   E E E E E E E E   E E E E E E E E
|-----------------|-----------------|-----------------|-----------------|
|-----------------|-----------------|-----------------|-----------------|
|-----------------|-----------------|-----------------|-----------------|
|-5-5-5-5-5-0-3-4-|-5-5-5-5-5-0-3-4-|-5-5-5-5-5-0-3-4-|-5-5-5-5-5-0-3-4-|


  E E E E E E E E   E E E E E E E E   E E E E E E E E   E E E E E E E E
|-----------------|-----------------|-----------------|-----------------|
|-----------------|-----------------|-----------------|-----------------|
|-----------------|-----------------|-----------------|-----------------|
|-5-5-5-5-5-0-3-4-|-5-5-5-5-5-0-3-4-|-5-5-5-5-5-0-3-4-|-5-5-5-5-5-0-3-4-|


  E E E E E E E E   E E E E E E E E   E E E E E E E E   E E E E E E E E
|-----------------|-----------------|-----------------|-----------------|
|-----------------|-----------------|-----------------|-----------------|
|-----------------|-----------------|-----------------|-----------------|
|-5-5-5-5-5-0-3-4-|-5-5-5-5-5-0-3-4-|-5-5-5-5-5-0-3-4-|-5-5-5-5-5-0-3-4-|


  E E E E E E E E   E E E E E E E E   E E E E E E E E   E E E E E E E E
|-----------------|-----------------|-----------------|-----------------|
|-----------------|-----------------|-----------------|-----------------|
|-----------------|-----------------|-----------------|-----------------|
|-5-5-5-5-5-0-3-4-|-5-5-5-5-5-0-3-4-|-5-5-5-5-5-0-3-4-|-5-5-5-5-5-0-3-4-|


  E E E E E E E E   E E E E E E E E   E E E E E E E E   E E E E E E E E
|-----------------|-----------------|-----------------|-----------------|
|-----------------|-----------------|-----------------|-----------------|
|-----------------|-----------------|-----------------|-----------------|
|-5-5-5-5-5-0-3-4-|-5-5-5-5-5-0-3-4-|-5-5-5-5-5-0-3-4-|-5-5-5-5-5-0-3-4-|


  E E E E E E E E   E E E E E E E E   E E E E E E E E   E E E E E E E E
|-----------------|-----------------|-----------------|-----------------|
|-----------------|-----------------|-----------------|-----------------|
|-----------------|-----------------|-----------------|-----------------|
|-5-5-5-5-5-0-3-4-|-5-5-5-5-5-0-3-4-|-5-5-5-5-5-0-3-4-|-5-5-5-5-5-0-3-4-|


  E E E E E E E E   E E E E E E E E   E E E E E E E E   E E E E E E E E
|-----------------|-----------------|-----------------|-----------------|
|-----------------|-----------------|-----------------|-----------------|
|-----------------|-----------------|-----------------|-----------------|
|-5-5-5-5-5-0-3-4-|-5-5-5-5-5-0-3-4-|-5-5-5-5-5-0-3-4-|-5-5-5-5-5-0-3-4-|


  E E E E E E E E   E E E E E E E E   E E E E E E E E   E E E E E E E E
|-----------------|-----------------|-----------------|-----------------*|
|-----------------|-----------------|-----------------|-----------------*|
|-----------------|-----------------|-----------------|-0-0-0-0-0-------*|
|-5-5-5-5-5-0-3-4-|-5-5-5-5-5-0-3-4-|-5-5-5-5-5-0-3-4-|-----------0-3-4-*|


Duration Legend
---------------
W - whole; H - half; Q - quarter; E - 8th; S - 16th; T - 32nd; X - 64th; a - acciaccatura
+ - note tied to previous; . - note dotted; .. - note double dotted
Uncapitalized letters represent notes that are staccato (1/2 duration)
Irregular groupings are notated above the duration line
Duration letters will always appear directly above the note/fret number it represents the
duration for.  Duration letters with no fret number below them represent rests.  Multi-
bar rests are notated in the form Wxn, where n is the number of bars to rest for.  Low
melody durations appear below the staff

Tablature Legend
----------------
 h   - hammer-on
 p   - pull-off
 b   - bend
 pb  - pre-bend
 r   - bend release (if no number after the r, then release immediately)
 /\  - slide into or out of (from/to "nowhere")
 s   - legato slide
 S   - shift slide
  - natural harmonic
[n]  - artificial harmonic
n(n) - tapped harmonic
 ~   - vibrato
 tr  - trill
 T   - tap
 TP  - trem. picking
 PM  - palm muting
\n/  - tremolo bar dip; n = amount to dip
 \n  - tremolo bar down
 n/  - tremolo bar up
/n\  - tremolo bar inverted dip
 =   - hold bend; also acts as connecting device for hammers/pulls
 <>  - volume swell (louder/softer)
 x   - on rhythm slash represents muted slash
 o   - on rhythm slash represents single note slash

Misc Legend
-----------
 |  - bar
||  - double bar
||o - repeat start
o|| - repeat end
*|  - double bar (ending)
 :  - bar (freetime)
 $  - Segno
 &  - Coda
Tempo markers -  = BPM(8/16=s8/s16), where s8 = swing 8ths, s16 = swing 16ths

            
Submit corrections


        La Woman lessons Hard to play? Try these video lessons and learn fast La Woman lessons
        
↑ Back to top | Tablatures and chords for acoustic guitar and electric guitar, ukulele, drums are parodies/interpretations of the original songs. You may use it for private study, scholarship, research or language learning purposes only