» » »

Doors - Alabama Song Tabs

Artists:  A B C D E F G H I J K L M N O P Q R S T U V W X Y Z # 

Alabama Song Tabs

(ver. 2) Click to play this song!
Doors
 Rating:
4/5 (4 votes)

 Alabama Song lessons Tabs too difficult? Try these video lessons and learn fast
 
                Gtr I (E A D G B E) - 'Robby Krieger - Electric Guitar'


   Intro
    Q=170
    Am
   4/4
    Gtr I
    q  q  q  q    q  q  q  Q    Q  q  q  q    q  q  q  Q
||-----5-----5--|----5--------|----5-----5--|----5----------||
||o----5-----5--|----5--------|----5-----5--|----5---------o||
||-----5-----5--|----5--------|----5-----5--|----5----------||
||-----7-----7--|----7--------|----7-----7--|----7----------||
||o-------------|-------7-----|-------------|-------7------o||
||--5-----5-----|-5--------0s=|=5-----5-----|-5--------0s===||


                1st & 2nd Verses
              $
                 Am
  Q  q  q  q     Q  q  q  q    q  q  q  Q    Q  q  q  q    q  q  q  q
|----5--------||----5-----5--|----5--------|----5-----5--|----5-----5--|
|----5--------||----5-----5--|----5--------|----5-----5--|----5-----5--|
|----5--------||----5-----5--|----5--------|----5-----5--|----5-----5--|
|----7--------||----7-----7--|----7--------|----7-----7--|----7-----7--|
|-------7-----||-------------|-------------|-------------|-------------|
|-5--------0s=||=5-----5-----|-5-----5--0s=|=5-----5-----|-5-----5-----|


  F#m           D             F#m           D
  q  q  q  q    q  q  q  q    q  q  q  q    q  q  q  q
|----2-----2--|----2-----2--|----2-----2--|----2-----2--|
|----2-----2--|----3-----3--|----2-----2--|----3-----3--|
|----2-----2--|----2-----2--|----2-----2--|----2-----2--|
|-4-----4-----|-0-----0-----|-4-----4-----|-0-----0-----|
|-------------|-------------|-------------|-------------|
|-------------|-------------|-------------|-------------|


  Am
  q  q  q  q    q  q  q  q    q  q  q  q    q  q  q  q
|----5-----5--|----5-----5--|----5-----5--|----5-----5--|
|----5-----5--|----5-----5--|----5-----5--|----5-----5--|
|----5-----5--|----5-----5--|----5-----5--|----5-----5--|
|----7-----7--|----7-----7--|----7-----7--|----7-----7--|
|-------------|-------------|-------------|-------------|
|-5-----5-----|-5-----5-----|-5-----5-----|-5-----5-----|


  F#m           D             F#m           D
  q  q  q  q    q  q  q  q    q  q  q  q    q  q  q  q
|----2-----2--|----2-----2--|----2-----2--|----2-----2--|
|----2-----2--|----3-----3--|----2-----2--|----3-----3--|
|----2-----2--|----2-----2--|----2-----2--|----2-----2--|
|-4-----4-----|-0-----0-----|-4-----4-----|-0-----0-----|
|-------------|-------------|-------------|-------------|
|-------------|-------------|-------------|-------------|


  Am
  q  q  q  q    q  q  q  q    q  q  q  q    q  q  q  q
|----5-----5--|----5-----5--|----5-----5--|----5-----5--|
|----5-----5--|----5-----5--|----5-----5--|----5-----5--|
|----5-----5--|----5-----5--|----5-----5--|----5-----5--|
|----7-----7--|----7-----7--|----7-----7--|----7-----7--|
|-------------|-------------|-------------|-------------|
|-5-----5-----|-5-----5-----|-5-----5-----|-5-----5-----|


  F#m           D             F#m           D
  q  q  q  q    q  q  q  q    q  q  q  q    q  q  q  q
|----2-----2--|----2-----2--|----2-----2--|----2-----2--|
|----2-----2--|----3-----3--|----2-----2--|----3-----3--|
|----2-----2--|----2-----2--|----2-----2--|----2-----2--|
|-4-----4-----|-0-----0-----|-4-----4-----|-0-----0-----|
|-------------|-------------|-------------|-------------|
|-------------|-------------|-------------|-------------|


  F#m                         F#m   D       C
  q  q  q  q    q  q  q  q    Q  Q  Q  Q    Q  Q  H
|----2-----2--|----2-----2--|-2--2--2--2--|-0----------|
|----2-----2--|----2-----2--|-2--2--3--3--|-1----------|
|----2-----2--|----2-----2--|-2--2--2--2--|-0----------|
|-4-----4-----|-4-----4-----|-4--4--0--0--|-2----------|
|-------------|-------------|-------------|-3----------|
|-------------|-------------|-------------|------------|


  N.C.
  q  q  q  q     q   q   q  q     q   q   q  q     q   q   Q  Q
|-8--8--8-----|--8---8---8-----|--8---8---8-----|--8---8---8-----||
|-------------|-12--12--12-----|-11--11--11-----|-10--10--10-----||
|-------------|----------------|----------------|----------------||
|-------------|----------------|----------------|----------------||
|-------------|----------------|----------------|----------------||
|-------------|----------------|----------------|----------------||


 Chorus
  F
  Q  Q  Q  Q    Q  Q  Q  Q    Q  Q  Q  Q    Q  Q  Q  Q
|----1-----1--|----1--------|----1-----1--|-------------|
|-------1-----|----------1--|-------1-----|-------1-----|
|-------------|-------2-----|-------------|----2--------|
|-3-----------|-3-----------|-3-----------|-3--------3--|
|-------------|-------------|-------------|-------------|
|-------------|-------------|-------------|-------------|


                              B7
  Q  Q  Q  Q    Q  Q  Q  Q    Q   Q  Q  Q     Q  Q  Q  Q
|----1-----1--|----------1--|-7---------7--|--------------|
|-------1-----|-------1-----|----10--------|-10--------7--|
|-------------|----2--------|--------8-----|-----8--8-----|
|-3-----------|-3-----------|--------------|--------------|
|-------------|-------------|--------------|--------------|
|-------------|-------------|--------------|--------------|


  G                           Gm
  Q  Q  Q  Q    Q  Q  Q  Q    Q  Q  Q  Q    Q  Q  Q  Q
|-3--------3--|-1-----------|-3-----------|----3---------|
|----3--------|----3-----3--|----3-----3--|-------3------|
|-------4-----|-------4-----|-------3-----|-3--------3s==|
|-------------|-------------|-------------|--------------|
|-------------|-------------|-------------|--------------|
|-------------|-------------|-------------|--------------|


  C             C7            F
  Q  Q  Q  Q    Q  Q  Q  Q    Q  E e q  q    H    Q  Q
|----8--------|-6-----8-----|-1----1-1--1--|-1----------||
|----------5--|----------5--|-2----2-2--2--|-2----1-----||
|-5-----5-----|----5--------|-2----2-2--2--|-2-------2--||
|-------------|-------------|--------------|------------||
|-------------|-------------|--------------|------------||
|-------------|-------------|--------------|------------||


  F
  Q  Q  Q  Q    Q  Q  Q  Q    Q  Q  Q  Q    Q  Q  Q  Q
|----1-----1--|----1--------|----1-----1--|-------------|
|-------1-----|----------1--|-------1-----|-------1-----|
|-------------|-------2-----|-------------|----2--------|
|-3-----------|-3-----------|-3-----------|-3--------3--|
|-------------|-------------|-------------|-------------|
|-------------|-------------|-------------|-------------|


                              E             E7
  Q  Q  Q  Q    Q  Q  Q  Q    Q  Q  Q  Q    Q  Q  H
|----1-----1--|----------1--|-0-----0--0--|----0--0s====|
|-------1-----|-------1-----|----0--------|-3-----------|
|-------------|----2--------|-------------|-------------|
|-3-----------|-3-----------|-2-----------|-------------|
|-------------|-------------|-------------|-------------|
|-------------|-------------|-------------|-------------|


                                                                To Coda
  Eb                Eb7               F
   Q   Q   Q   Q     Q   Q   Q   Q     Q   Q   Q   Q     Q   Q   Q   Q
|-11----------11--|-----11------11--|-----------------|-----13------13--|
|-----11----------|-14--------------|-13------13------|-13--------------|
|---------12------|---------12------|-----14------14--|---------14------|
|-----------------|-----------------|-----------------|-----------------|
|-----------------|-----------------|-----------------|-----------------|
|-----------------|-----------------|-----------------|-----------------|


  C              C7              F
   Q  Q  Q  Q     q   q  q  q     q  e  e  q   q     e E Q   H
|--------8-----|---------8--8--|------------------|-13-------------||
|-----------8--|-11--11--------|-13----13-13--13--|----------------||
|-----9--------|---------------|-14----14-14--14--|----------------||
|-10-----------|---------------|-15----15-15--15--|----------------||
|--------------|---------------|------------------|----------------||
|--------------|---------------|------------------|---------13\----||


 Interlude
                                            D.S. al Coda
  A
  q  q  q  q    q  q  q  Q    Q  q  q  q    q  q  q  Q
|----5-----5--|----5--------|----5-----5--|----5---------||
|----5-----5--|----5--------|----5-----5--|----5---------||
|----6-----6--|----6--------|----6-----6--|----6---------||
|----7-----7--|----7--------|----7-----7--|----7---------||
|-------------|-------------|-------------|--------------||
|-5-----5-----|-5-----5--0s=|=5-----5-----|-5-----5--0/--||


 Outro
  &
  C              C7               F
  Q  Q  E E Q     Q  Q  E  E Q     q  e  e  q   q     q  q  q  Q
|-8---------8--|--------8-------|-13----13-13--13--|-13-----------*|
|----8----8----|-11-------11----|-13----13-13--13--|-13-----------*|
|-------9------|-----9-------9--|-14----14-14--14--|-14-----------*|
|--------------|----------------|-15----15-15--15--|-15-----------*|
|--------------|----------------|------------------|--------------*|
|--------------|----------------|------------------|--------1-----*|
            
Submit corrections


        Alabama Song lessons Hard to play? Try these video lessons and learn fast Alabama Song lessons
        
↑ Back to top | Tablatures and chords for acoustic guitar and electric guitar, ukulele, drums are parodies/interpretations of the original songs. You may use it for private study, scholarship, research or language learning purposes only